  0
SECTION
  2
HEADER
  9
$ACADVER
  1
AC1015
  9
$ACADMAINTVER
 70
     6
  9
$DWGCODEPAGE
  3
ANSI_1252
  9
$INSBASE
 10
0.0
 20
0.0
 30
0.0
  9
$EXTMIN
 10
0.0
 20
0.0
 30
0.0
  9
$EXTMAX
 10
841.0
 20
594.0
 30
0.0
  9
$LIMMIN
 10
0.0
 20
0.0
  9
$LIMMAX
 10
841.0
 20
594.0
  9
$ORTHOMODE
 70
     0
  9
$REGENMODE
 70
     1
  9
$FILLMODE
 70
     1
  9
$QTEXTMODE
 70
     0
  9
$MIRRTEXT
 70
     1
  9
$LTSCALE
 40
1.0
  9
$ATTMODE
 70
     1
  9
$TEXTSIZE
 40
3.5
  9
$TRACEWID
 40
1.0
  9
$TEXTSTYLE
  7
Standard
  9
$CLAYER
  8
0
  9
$CELTYPE
  6
ByLayer
  9
$CECOLOR
 62
   256
  9
$CELTSCALE
 40
1.0
  9
$DISPSILH
 70
     0
  9
$DIMSCALE
 40
1.0
  9
$DIMASZ
 40
6.0
  9
$DIMEXO
 40
1.0
  9
$DIMDLI
 40
3.75
  9
$DIMRND
 40
0.0
  9
$DIMDLE
 40
0.0
  9
$DIMEXE
 40
1.0
  9
$DIMTP
 40
0.0
  9
$DIMTM
 40
0.0
  9
$DIMTXT
 40
3.5
  9
$DIMCEN
 40
2.5
  9
$DIMTSZ
 40
0.0
  9
$DIMTOL
 70
     0
  9
$DIMLIM
 70
     0
  9
$DIMTIH
 70
     1
  9
$DIMTOH
 70
     1
  9
$DIMSE1
 70
     0
  9
$DIMSE2
 70
     0
  9
$DIMTAD
 70
     1
  9
$DIMZIN
 70
     0
  9
$DIMBLK
  1

  9
$DIMASO
 70
     1
  9
$DIMSHO
 70
     1
  9
$DIMPOST
  1

  9
$DIMAPOST
  1

  9
$DIMALT
 70
     0
  9
$DIMALTD
 70
     3
  9
$DIMALTF
 40
0.0393700787
  9
$DIMLFAC
 40
1.0
  9
$DIMTOFL
 70
     1
  9
$DIMTVP
 40
0.0
  9
$DIMTIX
 70
     0
  9
$DIMSOXD
 70
     0
  9
$DIMSAH
 70
     0
  9
$DIMBLK1
  1

  9
$DIMBLK2
  1

  9
$DIMSTYLE
  2
ISO-25
  9
$DIMCLRD
 70
     0
  9
$DIMCLRE
 70
     0
  9
$DIMCLRT
 70
     0
  9
$DIMTFAC
 40
1.0
  9
$DIMGAP
 40
1.524
  9
$DIMJUST
 70
     0
  9
$DIMSD1
 70
     0
  9
$DIMSD2
 70
     0
  9
$DIMTOLJ
 70
     0
  9
$DIMTZIN
 70
     0
  9
$DIMALTZ
 70
     0
  9
$DIMALTTZ
 70
     0
  9
$DIMUPT
 70
     0
  9
$DIMDEC
 70
     3
  9
$DIMTDEC
 70
     3
  9
$DIMALTU
 70
     2
  9
$DIMALTTD
 70
     3
  9
$DIMTXSTY
  7
Standard
  9
$DIMAUNIT
 70
     0
  9
$DIMADEC
 70
     2
  9
$DIMALTRND
 40
0.0
  9
$DIMAZIN
 70
     0
  9
$DIMDSEP
 70
    44
  9
$DIMATFIT
 70
     3
  9
$DIMFRAC
 70
     0
  9
$DIMLDRBLK
  1

  9
$DIMLUNIT
 70
     2
  9
$DIMLWD
 70
    -2
  9
$DIMLWE
 70
    -2
  9
$DIMTMOVE
 70
     0
  9
$LUNITS
 70
     2
  9
$LUPREC
 70
     2
  9
$SKETCHINC
 40
1.0
  9
$FILLETRAD
 40
10.0
  9
$AUNITS
 70
     0
  9
$AUPREC
 70
     2
  9
$MENU
  1
.
  9
$ELEVATION
 40
0.0
  9
$PELEVATION
 40
0.0
  9
$THICKNESS
 40
0.0
  9
$LIMCHECK
 70
     0
  9
$CHAMFERA
 40
10.0
  9
$CHAMFERB
 40
10.0
  9
$CHAMFERC
 40
20.0
  9
$CHAMFERD
 40
0.0
  9
$SKPOLY
 70
     0
  9
$TDCREATE
 40
2455413.44940419
  9
$TDUCREATE
 40
2455413.366070856
  9
$TDUPDATE
 40
2455413.449404201
  9
$TDUUPDATE
 40
2455413.366070868
  9
$TDINDWG
 40
0.0000000116
  9
$TDUSRTIMER
 40
0.0000000116
  9
$USRTIMER
 70
     1
  9
$ANGBASE
 50
0.0
  9
$ANGDIR
 70
     0
  9
$PDMODE
 70
     0
  9
$PDSIZE
 40
-1.0
  9
$PLINEWID
 40
0.0
  9
$SPLFRAME
 70
     0
  9
$SPLINETYPE
 70
     6
  9
$SPLINESEGS
 70
     8
  9
$HANDSEED
  5
39F
  9
$SURFTAB1
 70
     6
  9
$SURFTAB2
 70
     6
  9
$SURFTYPE
 70
     6
  9
$SURFU
 70
     6
  9
$SURFV
 70
     6
  9
$UCSBASE
  2

  9
$UCSNAME
  2

  9
$UCSORG
 10
0.0
 20
0.0
 30
0.0
  9
$UCSXDIR
 10
1.0
 20
0.0
 30
0.0
  9
$UCSYDIR
 10
0.0
 20
1.0
 30
0.0
  9
$UCSORTHOREF
  2

  9
$UCSORTHOVIEW
 70
     0
  9
$UCSORGTOP
 10
0.0
 20
0.0
 30
0.0
  9
$UCSORGBOTTOM
 10
0.0
 20
0.0
 30
0.0
  9
$UCSORGLEFT
 10
0.0
 20
0.0
 30
0.0
  9
$UCSORGRIGHT
 10
0.0
 20
0.0
 30
0.0
  9
$UCSORGFRONT
 10
0.0
 20
0.0
 30
0.0
  9
$UCSORGBACK
 10
0.0
 20
0.0
 30
0.0
  9
$PUCSBASE
  2

  9
$PUCSNAME
  2

  9
$PUCSORG
 10
0.0
 20
0.0
 30
0.0
  9
$PUCSXDIR
 10
1.0
 20
0.0
 30
0.0
  9
$PUCSYDIR
 10
0.0
 20
1.0
 30
0.0
  9
$PUCSORTHOREF
  2

  9
$PUCSORTHOVIEW
 70
     0
  9
$PUCSORGTOP
 10
0.0
 20
0.0
 30
0.0
  9
$PUCSORGBOTTOM
 10
0.0
 20
0.0
 30
0.0
  9
$PUCSORGLEFT
 10
0.0
 20
0.0
 30
0.0
  9
$PUCSORGRIGHT
 10
0.0
 20
0.0
 30
0.0
  9
$PUCSORGFRONT
 10
0.0
 20
0.0
 30
0.0
  9
$PUCSORGBACK
 10
0.0
 20
0.0
 30
0.0
  9
$USERI1
 70
     0
  9
$USERI2
 70
     0
  9
$USERI3
 70
     0
  9
$USERI4
 70
     0
  9
$USERI5
 70
     0
  9
$USERR1
 40
0.0
  9
$USERR2
 40
0.0
  9
$USERR3
 40
0.0
  9
$USERR4
 40
0.0
  9
$USERR5
 40
0.0
  9
$WORLDVIEW
 70
     1
  9
$SHADEDGE
 70
     3
  9
$SHADEDIF
 70
    70
  9
$TILEMODE
 70
     1
  9
$MAXACTVP
 70
    64
  9
$PINSBASE
 10
0.0
 20
0.0
 30
0.0
  9
$PLIMCHECK
 70
     0
  9
$PEXTMIN
 10
1.0000000000E+20
 20
1.0000000000E+20
 30
1.0000000000E+20
  9
$PEXTMAX
 10
-1.0000000000E+20
 20
-1.0000000000E+20
 30
-1.0000000000E+20
  9
$PLIMMIN
 10
0.0
 20
0.0
  9
$PLIMMAX
 10
420.0
 20
297.0
  9
$UNITMODE
 70
     0
  9
$VISRETAIN
 70
     1
  9
$PLINEGEN
 70
     0
  9
$PSLTSCALE
 70
     1
  9
$TREEDEPTH
 70
  3020
  9
$CMLSTYLE
  2
Standard
  9
$CMLJUST
 70
     0
  9
$CMLSCALE
 40
20.0
  9
$PROXYGRAPHICS
 70
     1
  9
$MEASUREMENT
 70
     1
  9
$CELWEIGHT
370
    -1
  9
$ENDCAPS
280
     0
  9
$JOINSTYLE
280
     0
  9
$LWDISPLAY
290
     1
  9
$INSUNITS
 70
     4
  9
$HYPERLINKBASE
  1

  9
$STYLESHEET
  1

  9
$XEDIT
290
     1
  9
$CEPSNTYPE
380
     0
  9
$PSTYLEMODE
290
     1
  9
$FINGERPRINTGUID
  2
{2AA3DF61-4ED5-498E-99A7-271E6808FD38}
  9
$VERSIONGUID
  2
{FAEB1C32-E019-11D5-929B-00C0DF256EC4}
  9
$EXTNAMES
290
     1
  9
$PSVPSCALE
 40
0.0
  9
$OLESTARTUP
290
     0
  0
ENDSEC
  0
SECTION
  2
CLASSES
  0
CLASS
  1
ACDBDICTIONARYWDFLT
  2
AcDbDictionaryWithDefault
  3
ObjectDBX Classes
 90
        0
280
     0
281
     0
  0
CLASS
  1
VISUALSTYLE
  2
AcDbVisualStyle
  3
ObjectDBX Classes
 90
     4095
280
     0
281
     0
  0
CLASS
  1
DICTIONARYVAR
  2
AcDbDictionaryVar
  3
ObjectDBX Classes
 90
        0
280
     0
281
     0
  0
CLASS
  1
ACDBPLACEHOLDER
  2
AcDbPlaceHolder
  3
ObjectDBX Classes
 90
        0
280
     0
281
     0
  0
CLASS
  1
LAYOUT
  2
AcDbLayout
  3
ObjectDBX Classes
 90
        0
280
     0
281
     0
  0
ENDSEC
  0
SECTION
  2
TABLES
  0
TABLE
  2
VPORT
  5
8
330
0
100
AcDbSymbolTable
 70
     1
  0
VPORT
  5
29
330
8
100
AcDbSymbolTableRecord
100
AcDbViewportTableRecord
  2
*Active
 70
     0
 10
0.0
 20
0.0
 11
1.0
 21
1.0
 12
420.5
 22
297.0
 13
0.0
 23
0.0
 14
10.0
 24
10.0
 15
10.0
 25
10.0
 16
0.0
 26
0.0
 36
1.0
 17
0.0
 27
0.0
 37
0.0
 40
594.0
 41
1.4158249158
 42
50.0
 43
0.0
 44
0.0
 50
0.0
 51
0.0
 71
     0
 72
  2000
 73
     1
 74
     3
 75
     0
 76
     0
 77
     0
 78
     0
281
     0
 65
     1
110
0.0
120
0.0
130
0.0
111
1.0
121
0.0
131
0.0
112
0.0
122
1.0
132
0.0
 79
     0
146
0.0
  0
ENDTAB
  0
TABLE
  2
LTYPE
  5
5
330
0
100
AcDbSymbolTable
 70
     6
  0
LTYPE
  5
14
330
5
100
AcDbSymbolTableRecord
100
AcDbLinetypeTableRecord
  2
ByBlock
 70
     0
  3

 72
    65
 73
     0
 40
0.0
  0
LTYPE
  5
15
330
5
100
AcDbSymbolTableRecord
100
AcDbLinetypeTableRecord
  2
ByLayer
 70
     0
  3

 72
    65
 73
     0
 40
0.0
  0
LTYPE
  5
16
330
5
100
AcDbSymbolTableRecord
100
AcDbLinetypeTableRecord
  2
Continuous
 70
     0
  3
Solid line
 72
    65
 73
     0
 40
0.0
  0
LTYPE
  5
3B
330
5
100
AcDbSymbolTableRecord
100
AcDbLinetypeTableRecord
  2
HIDDEN
 70
     0
  3
Hidden __ __ __ __ __ __ __ __ __ __ __ __ __ __
 72
    65
 73
     2
 40
1.905
 49
1.27
 74
     0
 49
-0.635
 74
     0
  0
LTYPE
  5
3C
330
5
100
AcDbSymbolTableRecord
100
AcDbLinetypeTableRecord
  2
PHANTOM
 70
     0
  3
Phantom ______  __  __  ______  __  __  ______
 72
    65
 73
     6
 40
12.7
 49
6.35
 74
     0
 49
-1.27
 74
     0
 49
1.27
 74
     0
 49
-1.27
 74
     0
 49
1.27
 74
     0
 49
-1.27
 74
     0
  0
LTYPE
  5
3D
330
5
100
AcDbSymbolTableRecord
100
AcDbLinetypeTableRecord
  2
CENTER
 70
     0
  3
Center ____ _ ____ _ ____ _ ____ _ ____ _ ____
 72
    65
 73
     4
 40
10.16
 49
6.35
 74
     0
 49
-1.27
 74
     0
 49
1.27
 74
     0
 49
-1.27
 74
     0
  0
LTYPE
  5
3E
330
5
100
AcDbSymbolTableRecord
100
AcDbLinetypeTableRecord
  2
CENTERX2
 70
     0
  3
Center (2x) ________  __  ________  __  _____
 72
    65
 73
     4
 40
20.32
 49
12.7
 74
     0
 49
-2.54
 74
     0
 49
2.54
 74
     0
 49
-2.54
 74
     0
  0
LTYPE
  5
3F
330
5
100
AcDbSymbolTableRecord
100
AcDbLinetypeTableRecord
  2
DOT2
 70
     0
  3
Dot (.5x) ........................................
 72
    65
 73
     2
 40
0.635
 49
0.0
 74
     0
 49
-0.635
 74
     0
  0
ENDTAB
  0
TABLE
  2
LAYER
  5
2
330
0
100
AcDbSymbolTable
 70
     1
  0
LAYER
  5
10
330
2
100
AcDbSymbolTableRecord
100
AcDbLayerTableRecord
  2
0
 70
     0
 62
     7
  6
Continuous
370
    -3
390
F
  0
ENDTAB
  0
TABLE
  2
STYLE
  5
3
330
0
100
AcDbSymbolTable
 70
     1
  0
STYLE
  5
11
330
3
100
AcDbSymbolTableRecord
100
AcDbTextStyleTableRecord
  2
Standard
 70
     0
 40
0.0
 41
1.0
 50
0.0
 71
     0
 42
2.5
  3
txt
  4

  0
ENDTAB
  0
TABLE
  2
VIEW
  5
6
330
0
100
AcDbSymbolTable
 70
     0
  0
ENDTAB
  0
TABLE
  2
UCS
  5
7
330
0
100
AcDbSymbolTable
 70
     0
  0
ENDTAB
  0
TABLE
  2
APPID
  5
9
330
0
100
AcDbSymbolTable
 70
     1
  0
APPID
  5
12
330
9
100
AcDbSymbolTableRecord
100
AcDbRegAppTableRecord
  2
ACAD
 70
     0
  0
ENDTAB
  0
TABLE
  2
DIMSTYLE
  5
A
330
0
100
AcDbSymbolTable
 70
     1
100
AcDbDimStyleTable
  0
DIMSTYLE
105
27
330
A
100
AcDbSymbolTableRecord
100
AcDbDimStyleTableRecord
  2
ISO-25
 70
     0
 41
2.5
 42
0.625
 43
3.75
 44
1.25
 73
     0
 74
     0
 77
     1
 78
     8
140
2.5
141
2.5
143
0.0393700787
147
0.625
171
     3
172
     1
271
     2
272
     2
274
     3
278
    44
283
     0
284
     8
340
11
  0
ENDTAB
  0
TABLE
  2
BLOCK_RECORD
  5
1
330
0
100
AcDbSymbolTable
 70
     1
  0
BLOCK_RECORD
  5
1F
330
1
100
AcDbSymbolTableRecord
100
AcDbBlockTableRecord
  2
*Model_Space
340
22
  0
BLOCK_RECORD
  5
1B
330
1
100
AcDbSymbolTableRecord
100
AcDbBlockTableRecord
  2
*Paper_Space
340
1E
  0
BLOCK_RECORD
  5
23
330
1
100
AcDbSymbolTableRecord
100
AcDbBlockTableRecord
  2
*Paper_Space0
340
26
  0
ENDTAB
  0
ENDSEC
  0
SECTION
  2
BLOCKS
  0
BLOCK
  5
20
330
1F
100
AcDbEntity
  8
0
100
AcDbBlockBegin
  2
*Model_Space
 70
     0
 10
0.0
 20
0.0
 30
0.0
  3
*Model_Space
  1

  0
ENDBLK
  5
21
330
1F
100
AcDbEntity
  8
0
100
AcDbBlockEnd
  0
BLOCK
  5
1C
330
1B
100
AcDbEntity
 67
     1
  8
0
100
AcDbBlockBegin
  2
*Paper_Space
 70
     0
 10
0.0
 20
0.0
 30
0.0
  3
*Paper_Space
  1

  0
ENDBLK
  5
1D
330
1B
100
AcDbEntity
 67
     1
  8
0
100
AcDbBlockEnd
  0
BLOCK
  5
24
330
23
100
AcDbEntity
  8
0
100
AcDbBlockBegin
  2
*Paper_Space0
 70
     0
 10
0.0
 20
0.0
 30
0.0
  3
*Paper_Space0
  1

  0
ENDBLK
  5
25
330
23
100
AcDbEntity
  8
0
100
AcDbBlockEnd
  0
ENDSEC
  0
SECTION
  2
ENTITIES
  0
LINE
  5
40
330
1F
100
AcDbEntity
  8
0
  6
Continuous
 62
     7
370
    15
100
AcDbLine
 10
1143.3807774837
 20
1455.5989096973
 30
0.0
 11
1094.9932500179
 21
1455.5989096973
 31
0.0
  0
LINE
  5
41
330
1F
100
AcDbEntity
  8
0
  6
Continuous
 62
     7
370
    15
100
AcDbLine
 10
1063.7682839687
 20
1455.5989096973
 30
0.0
 11
156.3807293231
 21
1455.5989096973
 31
0.0
  0
LINE
  5
42
330
1F
100
AcDbEntity
  8
0
  6
Continuous
 62
     7
370
    15
100
AcDbLine
 10
126.3807579334
 20
1455.5989096973
 30
0.0
 11
-543.6192662065
 21
1455.5989096973
 31
0.0
  0
LINE
  5
43
330
1F
100
AcDbEntity
  8
0
  6
Continuous
 62
     7
370
    15
100
AcDbLine
 10
-573.6192673986
 20
1455.5989096973
 30
0.0
 11
-577.0067707246
 21
1455.5989096973
 31
0.0
  0
LINE
  5
44
330
1F
100
AcDbEntity
  8
0
  6
Continuous
 62
     7
370
    15
100
AcDbLine
 10
-608.2317628508
 20
1455.5989096973
 30
0.0
 11
-656.6192681977
 21
1455.5989096973
 31
0.0
  0
LINE
  5
45
330
1F
100
AcDbEntity
  8
0
  6
Continuous
 62
     7
370
    15
100
AcDbLine
 10
-656.6192681977
 20
1430.5989074621
 30
0.0
 11
-608.2317628508
 21
1430.5989074621
 31
0.0
  0
LINE
  5
46
330
1F
100
AcDbEntity
  8
0
  6
Continuous
 62
     7
370
    15
100
AcDbLine
 10
-577.0067707246
 20
1430.5989074621
 30
0.0
 11
-573.6192673986
 21
1430.5989074621
 31
0.0
  0
LINE
  5
47
330
1F
100
AcDbEntity
  8
0
  6
Continuous
 62
     7
370
    15
100
AcDbLine
 10
-543.6192662065
 20
1430.5989074621
 30
0.0
 11
126.3807579334
 21
1430.5989074621
 31
0.0
  0
LINE
  5
48
330
1F
100
AcDbEntity
  8
0
  6
Continuous
 62
     7
370
    15
100
AcDbLine
 10
156.3807293231
 20
1430.5989074621
 30
0.0
 11
1063.7682839687
 21
1430.5989074621
 31
0.0
  0
LINE
  5
49
330
1F
100
AcDbEntity
  8
0
  6
Continuous
 62
     7
370
    15
100
AcDbLine
 10
1094.9932500179
 20
1430.5989074621
 30
0.0
 11
1143.3807774837
 21
1430.5989074621
 31
0.0
  0
LINE
  5
4A
330
1F
100
AcDbEntity
  8
0
  6
Continuous
 62
     7
370
    15
100
AcDbLine
 10
169.9505611713
 20
-647.3010440257
 30
0.0
 11
169.8807045276
 21
-651.3009925273
 31
0.0
  0
LINE
  5
4B
330
1F
100
AcDbEntity
  8
0
  6
Continuous
 62
     7
370
    15
100
AcDbLine
 10
197.8807612712
 20
-651.3009925273
 30
0.0
 11
197.8109046275
 21
-647.3010440257
 31
0.0
  0
LINE
  5
4C
330
1F
100
AcDbEntity
  8
0
  6
Continuous
 62
     7
370
    15
100
AcDbLine
 10
1145.1807185466
 20
1430.5989074621
 30
0.0
 11
1145.3807517345
 21
1430.798908985
 31
0.0
  0
LINE
  5
4D
330
1F
100
AcDbEntity
  8
0
  6
Continuous
 62
     7
370
    15
100
AcDbLine
 10
1145.3807517345
 20
1455.398910037
 30
0.0
 11
1145.1807185466
 21
1455.5989096973
 31
0.0
  0
LINE
  5
4E
330
1F
100
AcDbEntity
  8
0
  6
Continuous
 62
     7
370
    15
100
AcDbLine
 10
1143.5806914623
 20
1455.5989096973
 30
0.0
 11
1143.3807774837
 21
1455.398910037
 31
0.0
  0
LINE
  5
4F
330
1F
100
AcDbEntity
  8
0
  6
Continuous
 62
     7
370
    15
100
AcDbLine
 10
1143.3807774837
 20
1430.798908985
 30
0.0
 11
1143.5806914623
 21
1430.5989074621
 31
0.0
  0
LINE
  5
50
330
1F
100
AcDbEntity
  8
0
  6
Continuous
 62
     7
370
    15
100
AcDbLine
 10
1145.1807185466
 20
1455.5989096973
 30
0.0
 11
1143.5806914623
 21
1455.5989096973
 31
0.0
  0
LINE
  5
51
330
1F
100
AcDbEntity
  8
0
  6
Continuous
 62
     7
370
    15
100
AcDbLine
 10
1143.5806914623
 20
1430.5989074621
 30
0.0
 11
1145.1807185466
 21
1430.5989074621
 31
0.0
  0
LINE
  5
52
330
1F
100
AcDbEntity
  8
0
  6
Continuous
 62
     7
370
    15
100
AcDbLine
 10
-656.8192683236
 20
1430.5989074621
 30
0.0
 11
-656.6192681977
 21
1430.798908985
 31
0.0
  0
LINE
  5
53
330
1F
100
AcDbEntity
  8
0
  6
Continuous
 62
     7
370
    15
100
AcDbLine
 10
-656.6192681977
 20
1455.398910037
 30
0.0
 11
-656.8192683236
 21
1455.5989096973
 31
0.0
  0
LINE
  5
54
330
1F
100
AcDbEntity
  8
0
  6
Continuous
 62
     7
370
    15
100
AcDbLine
 10
-658.4192682977
 20
1455.5989096973
 30
0.0
 11
-658.6192682927
 21
1455.398910037
 31
0.0
  0
LINE
  5
55
330
1F
100
AcDbEntity
  8
0
  6
Continuous
 62
     7
370
    15
100
AcDbLine
 10
-658.6192682927
 20
1430.798908985
 30
0.0
 11
-658.4192682977
 21
1430.5989074621
 31
0.0
  0
LINE
  5
56
330
1F
100
AcDbEntity
  8
0
  6
Continuous
 62
     7
370
    15
100
AcDbLine
 10
-658.4192682977
 20
1430.5989074621
 30
0.0
 11
-656.8192683236
 21
1430.5989074621
 31
0.0
  0
LINE
  5
57
330
1F
100
AcDbEntity
  8
0
  6
Continuous
 62
     7
370
    15
100
AcDbLine
 10
-656.8192683236
 20
1455.5989096973
 30
0.0
 11
-658.4192682977
 21
1455.5989096973
 31
0.0
  0
LINE
  5
58
330
1F
100
AcDbEntity
  8
0
  6
Continuous
 62
     7
370
    15
100
AcDbLine
 10
1143.3807774837
 20
1443.098906717
 30
0.0
 11
1143.3807774837
 21
1455.5989096973
 31
0.0
  0
LINE
  5
59
330
1F
100
AcDbEntity
  8
0
  6
Continuous
 62
     7
370
    15
100
AcDbLine
 10
1143.3807774837
 20
1430.5989074621
 30
0.0
 11
1143.3807774837
 21
1443.098906717
 31
0.0
  0
LINE
  5
5A
330
1F
100
AcDbEntity
  8
0
  6
Continuous
 62
     7
370
    15
100
AcDbLine
 10
-656.6192681977
 20
1443.098906717
 30
0.0
 11
-656.6192681977
 21
1455.5989096973
 31
0.0
  0
LINE
  5
5B
330
1F
100
AcDbEntity
  8
0
  6
Continuous
 62
     7
370
    15
100
AcDbLine
 10
-656.6192681977
 20
1430.5989074621
 30
0.0
 11
-656.6192681977
 21
1443.098906717
 31
0.0
  0
SPLINE
  5
5C
330
1F
100
AcDbEntity
  8
0
  6
Continuous
 62
     7
370
    15
100
AcDbSpline
210
0.0
220
0.0
230
1.0
 70
    11
 71
     3
 72
    28
 73
    24
 74
     0
 42
0.00000001
 43
0.00000001
 40
0.0
 40
0.0
 40
0.0
 40
0.0
 40
0.0475553473187448
 40
0.0949666974951875
 40
0.1460691020424927
 40
0.2034574015977563
 40
0.2467838306863038
 40
0.2901849243956722
 40
0.3330337609230338
 40
0.3834824096022847
 40
0.4410919241743156
 40
0.4950482172278194
 40
0.5415899722255516
 40
0.5869405078083071
 40
0.63702394185236
 40
0.6937078017862104
 40
0.7381345685471413
 40
0.7826957475287576
 40
0.8249697745521759
 40
0.8737311264438722
 40
0.9306924434440167
 40
0.986018739499096
 40
1.0
 40
1.0
 40
1.0
 40
1.0
 10
1020.930783396466
 20
1443.098906717019
 30
0.0
 10
1020.860778212007
 20
1442.326108863111
 30
0.0
 10
1020.720979818128
 20
1440.782853179895
 30
0.0
 10
1019.64805595888
 20
1438.697163612331
 30
0.0
 10
1017.993730703459
 20
1436.945835492425
 30
0.0
 10
1015.865655794926
 20
1435.832314718334
 30
0.0
 10
1013.540212487608
 20
1435.449809517483
 30
0.0
 10
1011.425466614898
 20
1435.707697621026
 30
0.0
 10
1009.430256977351
 20
1436.543496530311
 30
0.0
 10
1007.614259727997
 20
1438.014816137382
 30
0.0
 10
1006.243712704377
 20
1440.184449102355
 30
0.0
 10
1005.703470087063
 20
1442.73416954244
 30
0.0
 10
1005.992251656153
 20
1445.118163607103
 30
0.0
 10
1006.907852680155
 20
1447.195748195136
 30
0.0
 10
1008.448348395634
 20
1448.990552100573
 30
0.0
 10
1010.482732766633
 20
1450.209249883318
 30
0.0
 10
1012.791519685667
 20
1450.732028114924
 30
0.0
 10
1014.955143591281
 20
1450.583233522657
 30
0.0
 10
1016.985259121645
 20
1449.846162692375
 30
0.0
 10
1018.844424908344
 20
1448.498474439507
 30
0.0
 10
1020.320148147401
 20
1446.446835312732
 30
0.0
 10
1020.893058100394
 20
1444.446097526709
 30
0.0
 10
1020.924450647239
 20
1443.325052630964
 30
0.0
 10
1020.930783396466
 20
1443.098906717019
 30
0.0
  0
SPLINE
  5
5D
330
1F
100
AcDbEntity
  8
0
  6
Continuous
 62
     7
370
    15
100
AcDbSpline
210
0.0
220
0.0
230
1.0
 70
    11
 71
     3
 72
    28
 73
    24
 74
     0
 42
0.00000001
 43
0.00000001
 40
0.0
 40
0.0
 40
0.0
 40
0.0
 40
0.0475550320227201
 40
0.0949664391415243
 40
0.1460697086162078
 40
0.2034570276781454
 40
0.2467859180408679
 40
0.2901858488163389
 40
0.3330336365135904
 40
0.3834832524589569
 40
0.4410922114997907
 40
0.4950485693563161
 40
0.5415903802520017
 40
0.5869404921693664
 40
0.6370247460758216
 40
0.693708674088578
 40
0.7381343092378275
 40
0.7826955417386697
 40
0.8249696195343804
 40
0.8737310299898281
 40
0.9306924154021121
 40
0.986018777905625
 40
1.0
 40
1.0
 40
1.0
 40
1.0
 10
-6.069286221759312
 20
1443.098906717019
 30
0.0
 10
-6.13924275256153
 20
1442.326108256561
 30
0.0
 10
-6.278944532634362
 20
1440.782845328493
 30
0.0
 10
-7.351897963266768
 20
1438.69714369585
 30
0.0
 10
-9.006273828622207
 20
1436.945872569354
 30
0.0
 10
-11.13433754386375
 20
1435.832280007888
 30
0.0
 10
-13.45980047586207
 20
1435.449819116119
 30
0.0
 10
-15.57455021272705
 20
1435.70768920968
 30
0.0
 10
-17.56970388776938
 20
1436.543531305674
 30
0.0
 10
-19.38576251124016
 20
1438.0147766685
 30
0.0
 10
-20.75622007351155
 20
1440.184469759663
 30
0.0
 10
-21.29649090057864
 20
1442.734169993262
 30
0.0
 10
-21.00767784463734
 20
1445.11814701864
 30
0.0
 10
-20.09217995950832
 20
1447.195781306344
 30
0.0
 10
-18.55158903818036
 20
1448.990531869442
 30
0.0
 10
-16.5172375077445
 20
1450.209239718902
 30
0.0
 10
-14.2084715307256
 20
1450.732032128311
 30
0.0
 10
-12.04486588193246
 20
1450.583232190555
 30
0.0
 10
-10.01475237010732
 20
1449.846163040628
 30
0.0
 10
-8.155578370632549
 20
1448.498474602379
 30
0.0
 10
-6.679891162541446
 20
1446.446834033994
 30
0.0
 10
-6.106880090105765
 20
1444.44610164418
 30
0.0
 10
-6.075596892347629
 20
1443.325052729059
 30
0.0
 10
-6.069286221759312
 20
1443.098906717019
 30
0.0
  0
SPLINE
  5
5E
330
1F
100
AcDbEntity
  8
0
  6
Continuous
 62
     7
370
    15
100
AcDbSpline
210
0.0
220
0.0
230
1.0
 70
    11
 71
     3
 72
    28
 73
    24
 74
     0
 42
0.00000001
 43
0.00000001
 40
0.0
 40
0.0
 40
0.0
 40
0.0
 40
0.0475551080025482
 40
0.0949663672213787
 40
0.1460694174184811
 40
0.203457240539264
 40
0.2467855130015363
 40
0.2901854281607572
 40
0.3330337505857465
 40
0.3834831217080682
 40
0.4410923723783117
 40
0.4950486798373283
 40
0.5415905100844646
 40
0.5869407849802347
 40
0.6370246410076884
 40
0.6937085486243202
 40
0.7381338715463547
 40
0.7826953940275508
 40
0.8249694566121181
 40
0.8737310862609505
 40
0.9306922804770736
 40
0.9860187829363762
 40
1.0
 40
1.0
 40
1.0
 40
1.0
 10
-519.0692678635287
 20
1443.098906717019
 30
0.0
 10
-519.1392378413634
 20
1442.3261089705
 30
0.0
 10
-519.2789661458216
 20
1440.7828511026
 30
0.0
 10
-520.3518903625477
 20
1438.69714533727
 30
0.0
 10
-522.0062601161359
 20
1436.945859333938
 30
0.0
 10
-524.1343347772032
 20
1435.832291696289
 30
0.0
 10
-526.4597916795489
 20
1435.449815454877
 30
0.0
 10
-528.5745376934789
 20
1435.707696311131
 30
0.0
 10
-530.5697112850607
 20
1436.543517557662
 30
0.0
 10
-532.3857534865268
 20
1438.014791004498
 30
0.0
 10
-533.7562550626487
 20
1440.184458774138
 30
0.0
 10
-534.2965095123618
 20
1442.734172175238
 30
0.0
 10
-534.0076857401161
 20
1445.118152237762
 30
0.0
 10
-533.0921536365591
 20
1447.195766610471
 30
0.0
 10
-531.5516059176834
 20
1448.990542220626
 30
0.0
 10
-529.5172503227831
 20
1450.209235186993
 30
0.0
 10
-527.2084894109117
 20
1450.732033785477
 30
0.0
 10
-525.0448808214016
 20
1450.583234065086
 30
0.0
 10
-523.0147636901177
 20
1449.846159075288
 30
0.0
 10
-521.1555705466277
 20
1448.498484620156
 30
0.0
 10
-519.6799170227827
 20
1446.446822978654
 30
0.0
 10
-519.1068596569725
 20
1444.446104897639
 30
0.0
 10
-519.075578173703
 20
1443.325052841137
 30
0.0
 10
-519.0692678635287
 20
1443.098906717019
 30
0.0
  0
SPLINE
  5
5F
330
1F
100
AcDbEntity
  8
0
  6
Continuous
 62
     7
370
    15
100
AcDbSpline
210
0.0
220
0.0
230
1.0
 70
    11
 71
     3
 72
    28
 73
    24
 74
     0
 42
0.00000001
 43
0.00000001
 40
0.0
 40
0.0
 40
0.0
 40
0.0
 40
0.0475553473187448
 40
0.0949666974951875
 40
0.1460691020424927
 40
0.2034574015977563
 40
0.2467838306863038
 40
0.2901849243956722
 40
0.3330337609230338
 40
0.3834824096022847
 40
0.4410919241743156
 40
0.4950482172278194
 40
0.5415899722255516
 40
0.5869405078083071
 40
0.63702394185236
 40
0.6937078017862104
 40
0.7381345685471413
 40
0.7826957475287576
 40
0.8249697745521759
 40
0.8737311264438722
 40
0.9306924434440167
 40
0.986018739499096
 40
1.0
 40
1.0
 40
1.0
 40
1.0
 10
507.930771952374
 20
1443.098906717019
 30
0.0
 10
507.8607667679156
 20
1442.326108863111
 30
0.0
 10
507.720968374036
 20
1440.782853179895
 30
0.0
 10
506.6480445147888
 20
1438.697163612331
 30
0.0
 10
504.993719259367
 20
1436.945835492425
 30
0.0
 10
502.8656443508335
 20
1435.832314718334
 30
0.0
 10
500.540201043516
 20
1435.449809517483
 30
0.0
 10
498.4254551708067
 20
1435.707697621026
 30
0.0
 10
496.4302455332585
 20
1436.543496530311
 30
0.0
 10
494.6142482839058
 20
1438.014816137382
 30
0.0
 10
493.2437012602846
 20
1440.184449102355
 30
0.0
 10
492.7034586429722
 20
1442.73416954244
 30
0.0
 10
492.992240212061
 20
1445.118163607103
 30
0.0
 10
493.9078412360638
 20
1447.195748195136
 30
0.0
 10
495.4483369515426
 20
1448.990552100573
 30
0.0
 10
497.4827213225403
 20
1450.209249883318
 30
0.0
 10
499.7915082415763
 20
1450.732028114924
 30
0.0
 10
501.9551321471889
 20
1450.583233522657
 30
0.0
 10
503.985247677553
 20
1449.846162692375
 30
0.0
 10
505.8444134642517
 20
1448.498474439507
 30
0.0
 10
507.3201367033096
 20
1446.446835312732
 30
0.0
 10
507.8930466563019
 20
1444.446097526709
 30
0.0
 10
507.9244392031468
 20
1443.325052630964
 30
0.0
 10
507.930771952374
 20
1443.098906717019
 30
0.0
  0
LINE
  5
60
330
1F
100
AcDbEntity
  8
0
  6
Continuous
 62
     7
370
    15
100
AcDbLine
 10
156.8807526882
 20
-651.3009925273
 30
0.0
 11
156.8807526882
 21
-655.3011794475
 31
0.0
  0
LINE
  5
61
330
1F
100
AcDbEntity
  8
0
  6
Continuous
 62
     7
370
    15
100
AcDbLine
 10
156.8807526882
 20
-651.3009925273
 30
0.0
 11
221.3807269389
 21
-651.3009925273
 31
0.0
  0
LINE
  5
62
330
1F
100
AcDbEntity
  8
0
  6
Continuous
 62
     7
370
    15
100
AcDbLine
 10
221.3807269389
 20
-651.3009925273
 30
0.0
 11
221.3807269389
 21
-655.3011794475
 31
0.0
  0
LINE
  5
63
330
1F
100
AcDbEntity
  8
0
  6
Continuous
 62
     7
370
    15
100
AcDbLine
 10
156.8807526882
 20
-655.3011794475
 30
0.0
 11
221.3807269389
 21
-655.3011794475
 31
0.0
  0
LINE
  5
64
330
1F
100
AcDbEntity
  8
0
  6
Continuous
 62
     7
370
    15
100
AcDbLine
 10
-594.7774559801
 20
1442.2769921932
 30
0.0
 11
-592.9865673726
 21
1440.8189023945
 31
0.0
  0
LINE
  5
65
330
1F
100
AcDbEntity
  8
0
  6
Continuous
 62
     7
370
    15
100
AcDbLine
 10
-590.8283725922
 20
1441.6408169183
 30
0.0
 11
-592.9865673726
 21
1440.8189023945
 31
0.0
  0
LINE
  5
66
330
1F
100
AcDbEntity
  8
0
  6
Continuous
 62
     7
370
    15
100
AcDbLine
 10
-590.46107387
 20
1443.9208249661
 30
0.0
 11
-590.8283725922
 21
1441.6408169183
 31
0.0
  0
LINE
  5
67
330
1F
100
AcDbEntity
  8
0
  6
Continuous
 62
     7
370
    15
100
AcDbLine
 10
-590.46107387
 20
1443.9208249661
 30
0.0
 11
-592.251969928
 21
1445.3789147648
 31
0.0
  0
LINE
  5
68
330
1F
100
AcDbEntity
  8
0
  6
Continuous
 62
     7
370
    15
100
AcDbLine
 10
-594.4101647084
 20
1444.557000241
 30
0.0
 11
-592.251969928
 21
1445.3789147648
 31
0.0
  0
LINE
  5
69
330
1F
100
AcDbEntity
  8
0
  6
Continuous
 62
     7
370
    15
100
AcDbLine
 10
-594.4101647084
 20
1444.557000241
 30
0.0
 11
-594.7774559801
 21
1442.2769921932
 31
0.0
  0
LINE
  5
6A
330
1F
100
AcDbEntity
  8
0
  6
Continuous
 62
     7
370
    15
100
AcDbLine
 10
1077.222482806
 20
1442.2769921932
 30
0.0
 11
1079.0134831722
 21
1440.8189023945
 31
0.0
  0
LINE
  5
6B
330
1F
100
AcDbEntity
  8
0
  6
Continuous
 62
     7
370
    15
100
AcDbLine
 10
1081.5389319713
 20
1443.9208249661
 30
0.0
 11
1081.1716481502
 21
1441.6408169183
 31
0.0
  0
LINE
  5
6C
330
1F
100
AcDbEntity
  8
0
  6
Continuous
 62
     7
370
    15
100
AcDbLine
 10
1077.5898858363
 20
1444.557000241
 30
0.0
 11
1079.7480508144
 21
1445.3789147648
 31
0.0
  0
LINE
  5
6D
330
1F
100
AcDbEntity
  8
0
  6
Continuous
 62
     7
370
    15
100
AcDbLine
 10
1077.5898858363
 20
1444.557000241
 30
0.0
 11
1077.222482806
 21
1442.2769921932
 31
0.0
  0
LINE
  5
6E
330
1F
100
AcDbEntity
  8
0
  6
Continuous
 62
     7
370
    15
100
AcDbLine
 10
1081.5389319713
 20
1443.9208249661
 30
0.0
 11
1079.7480508144
 21
1445.3789147648
 31
0.0
  0
LINE
  5
6F
330
1F
100
AcDbEntity
  8
0
  6
Continuous
 62
     7
370
    15
100
AcDbLine
 10
1081.1716481502
 20
1441.6408169183
 30
0.0
 11
1079.0134831722
 21
1440.8189023945
 31
0.0
  0
CIRCLE
  5
70
330
1F
100
AcDbEntity
  8
0
  6
Continuous
 62
     7
370
    15
100
AcDbCircle
 10
1079.3807317073
 20
1443.0989082906
 30
0.0
 40
19.99999999999999
  0
ARC
  5
71
330
1F
100
AcDbEntity
  8
0
  6
Continuous
 62
     7
370
    15
100
AcDbCircle
 10
-592.6192682927
 20
1443.0989082906
 30
0.0
 40
20.00000000000004
100
AcDbArc
 50
18.1948723388
 51
341.8051276612
  0
LINE
  5
72
330
1F
100
AcDbEntity
  8
0
  6
Continuous
 62
     7
370
    15
100
AcDbLine
 10
1145.1807185466
 20
1442.9962786946
 30
0.0
 11
1145.1807185466
 21
1455.5989096973
 31
0.0
  0
LINE
  5
73
330
1F
100
AcDbEntity
  8
0
  6
Continuous
 62
     7
370
    15
100
AcDbLine
 10
1145.1807185466
 20
1430.5989074621
 30
0.0
 11
1145.1807185466
 21
1442.9962786946
 31
0.0
  0
LINE
  5
74
330
1F
100
AcDbEntity
  8
0
  6
Continuous
 62
     7
370
    15
100
AcDbLine
 10
1145.3807517345
 20
1442.9979215476
 30
0.0
 11
1145.3807517345
 21
1430.798908985
 31
0.0
  0
LINE
  5
75
330
1F
100
AcDbEntity
  8
0
  6
Continuous
 62
     7
370
    15
100
AcDbLine
 10
1145.3807517345
 20
1455.398910037
 30
0.0
 11
1145.3807517345
 21
1442.9979215476
 31
0.0
  0
LINE
  5
76
330
1F
100
AcDbEntity
  8
0
  6
Continuous
 62
     7
370
    15
100
AcDbLine
 10
1143.5806914623
 20
1442.9962786946
 30
0.0
 11
1143.5806914623
 21
1430.5989074621
 31
0.0
  0
LINE
  5
77
330
1F
100
AcDbEntity
  8
0
  6
Continuous
 62
     7
370
    15
100
AcDbLine
 10
1143.5806914623
 20
1455.5989096973
 30
0.0
 11
1143.5806914623
 21
1442.9962786946
 31
0.0
  0
LINE
  5
78
330
1F
100
AcDbEntity
  8
0
  6
Continuous
 62
     7
370
    15
100
AcDbLine
 10
-656.8192683236
 20
1430.5989074621
 30
0.0
 11
-656.8192683236
 21
1455.5989096973
 31
0.0
  0
LINE
  5
79
330
1F
100
AcDbEntity
  8
0
  6
Continuous
 62
     7
370
    15
100
AcDbLine
 10
-658.4192682977
 20
1455.5989096973
 30
0.0
 11
-658.4192682977
 21
1430.5989074621
 31
0.0
  0
LINE
  5
7A
330
1F
100
AcDbEntity
  8
0
  6
Continuous
 62
     7
370
    15
100
AcDbLine
 10
-658.6192682927
 20
1430.798908985
 30
0.0
 11
-658.6192682927
 21
1455.398910037
 31
0.0
  0
LINE
  5
7B
330
1F
100
AcDbEntity
  8
0
  6
Continuous
 62
     7
370
    15
100
AcDbLine
 10
141.2493749912
 20
1350.5942302856
 30
0.0
 11
143.8225075061
 21
1349.2603118631
 31
0.0
  0
LINE
  5
7C
330
1F
100
AcDbEntity
  8
0
  6
Continuous
 62
     7
370
    15
100
AcDbLine
 10
138.8076111133
 20
1349.0328232858
 30
0.0
 11
141.2493749912
 21
1350.5942302856
 31
0.0
  0
LINE
  5
7D
330
1F
100
AcDbEntity
  8
0
  6
Continuous
 62
     7
370
    15
100
AcDbLine
 10
141.5120526607
 20
1344.8035868916
 30
0.0
 11
138.9389797504
 21
1346.1375053141
 31
0.0
  0
LINE
  5
7E
330
1F
100
AcDbEntity
  8
0
  6
Continuous
 62
     7
370
    15
100
AcDbLine
 10
138.9389797504
 20
1346.1375053141
 30
0.0
 11
138.8076111133
 21
1349.0328232858
 31
0.0
  0
CIRCLE
  5
7F
330
1F
100
AcDbEntity
  8
0
  6
Continuous
 62
     7
370
    15
100
AcDbCircle
 10
141.3807317073
 20
1347.6989082906
 30
0.0
 40
7.785000000000033
  0
LINE
  5
80
330
1F
100
AcDbEntity
  8
0
  6
Continuous
 62
     7
370
    15
100
AcDbLine
 10
143.9538165386
 20
1346.3649901661
 30
0.0
 11
141.5120526607
 21
1344.8035868916
 31
0.0
  0
LINE
  5
81
330
1F
100
AcDbEntity
  8
0
  6
Continuous
 62
     7
370
    15
100
AcDbLine
 10
143.8225075061
 20
1349.2603118631
 30
0.0
 11
143.9538165386
 21
1346.3649901661
 31
0.0
  0
ARC
  5
82
330
1F
100
AcDbEntity
  8
0
  6
Continuous
 62
     7
370
    15
100
AcDbCircle
 10
141.3807317073
 20
1347.6989082906
 30
0.0
 40
2.510000000000044
100
AcDbArc
 50
302.5973255621
 51
2.5973255621
  0
ARC
  5
83
330
1F
100
AcDbEntity
  8
0
  6
Continuous
 62
     7
370
    15
100
AcDbCircle
 10
141.3807317073
 20
1347.6989082906
 30
0.0
 40
2.510000000000044
100
AcDbArc
 50
2.5973255621
 51
62.5973255621
  0
ARC
  5
84
330
1F
100
AcDbEntity
  8
0
  6
Continuous
 62
     7
370
    15
100
AcDbCircle
 10
141.3807317073
 20
1347.6989082906
 30
0.0
 40
2.510000000000006
100
AcDbArc
 50
62.5973255621
 51
122.5973255621
  0
ARC
  5
85
330
1F
100
AcDbEntity
  8
0
  6
Continuous
 62
     7
370
    15
100
AcDbCircle
 10
141.3807317073
 20
1347.6989082906
 30
0.0
 40
2.509999999999994
100
AcDbArc
 50
242.5973255621
 51
302.5973255621
  0
ARC
  5
86
330
1F
100
AcDbEntity
  8
0
  6
Continuous
 62
     7
370
    15
100
AcDbCircle
 10
141.3807317073
 20
1347.6989082906
 30
0.0
 40
2.510000000000005
100
AcDbArc
 50
182.5973255621
 51
242.5973255621
  0
ARC
  5
87
330
1F
100
AcDbEntity
  8
0
  6
Continuous
 62
     7
370
    15
100
AcDbCircle
 10
141.3807317073
 20
1347.6989082906
 30
0.0
 40
2.510000000000005
100
AcDbArc
 50
122.5973255621
 51
182.5973255621
  0
LINE
  5
88
330
1F
100
AcDbEntity
  8
0
  6
Continuous
 62
     7
370
    15
100
AcDbLine
 10
-556.1775178259
 20
1294.2603121612
 30
0.0
 11
-556.0461789911
 21
1291.3649941895
 31
0.0
  0
LINE
  5
89
330
1F
100
AcDbEntity
  8
0
  6
Continuous
 62
     7
370
    15
100
AcDbLine
 10
-558.7506056373
 20
1295.5942268583
 30
0.0
 11
-556.1775178259
 21
1294.2603121612
 31
0.0
  0
LINE
  5
8A
330
1F
100
AcDbEntity
  8
0
  6
Continuous
 62
     7
370
    15
100
AcDbLine
 10
-561.1923620646
 20
1294.0328235838
 30
0.0
 11
-558.7506056373
 21
1295.5942268583
 31
0.0
  0
LINE
  5
8B
330
1F
100
AcDbEntity
  8
0
  6
Continuous
 62
     7
370
    15
100
AcDbLine
 10
-561.0610232299
 20
1291.1375056121
 30
0.0
 11
-561.1923620646
 21
1294.0328235838
 31
0.0
  0
LINE
  5
8C
330
1F
100
AcDbEntity
  8
0
  6
Continuous
 62
     7
370
    15
100
AcDbLine
 10
-558.4879279678
 20
1289.8035909149
 30
0.0
 11
-561.0610232299
 21
1291.1375056121
 31
0.0
  0
LINE
  5
8D
330
1F
100
AcDbEntity
  8
0
  6
Continuous
 62
     7
370
    15
100
AcDbLine
 10
-556.0461789911
 20
1291.3649941895
 30
0.0
 11
-558.4879279678
 21
1289.8035909149
 31
0.0
  0
CIRCLE
  5
8E
330
1F
100
AcDbEntity
  8
0
  6
Continuous
 62
     7
370
    15
100
AcDbCircle
 10
-558.6192682927
 20
1292.6989082906
 30
0.0
 40
7.785000000000005
  0
ARC
  5
8F
330
1F
100
AcDbEntity
  8
0
  6
Continuous
 62
     7
370
    15
100
AcDbCircle
 10
-558.6192682927
 20
1292.6989082906
 30
0.0
 40
2.510000000000034
100
AcDbArc
 50
2.5973255621
 51
62.5973255621
  0
ARC
  5
90
330
1F
100
AcDbEntity
  8
0
  6
Continuous
 62
     7
370
    15
100
AcDbCircle
 10
-558.6192682927
 20
1292.6989082906
 30
0.0
 40
2.510000000000165
100
AcDbArc
 50
122.5973255621
 51
182.5973255621
  0
ARC
  5
91
330
1F
100
AcDbEntity
  8
0
  6
Continuous
 62
     7
370
    15
100
AcDbCircle
 10
-558.6192682927
 20
1292.6989082906
 30
0.0
 40
2.510000000000034
100
AcDbArc
 50
302.5973255621
 51
2.5973255621
  0
ARC
  5
92
330
1F
100
AcDbEntity
  8
0
  6
Continuous
 62
     7
370
    15
100
AcDbCircle
 10
-558.6192682927
 20
1292.6989082906
 30
0.0
 40
2.510000000000165
100
AcDbArc
 50
62.5973255621
 51
122.5973255621
  0
ARC
  5
93
330
1F
100
AcDbEntity
  8
0
  6
Continuous
 62
     7
370
    15
100
AcDbCircle
 10
-558.6192682927
 20
1292.6989082906
 30
0.0
 40
2.509999999999973
100
AcDbArc
 50
242.5973255621
 51
302.5973255621
  0
ARC
  5
94
330
1F
100
AcDbEntity
  8
0
  6
Continuous
 62
     7
370
    15
100
AcDbCircle
 10
-558.6192682927
 20
1292.6989082906
 30
0.0
 40
2.510000000000023
100
AcDbArc
 50
182.5973255621
 51
242.5973255621
  0
LINE
  5
95
330
1F
100
AcDbEntity
  8
0
  6
Continuous
 62
     7
370
    15
100
AcDbLine
 10
138.9389797504
 20
1291.1375056121
 30
0.0
 11
138.8076111133
 21
1294.0328235838
 31
0.0
  0
LINE
  5
96
330
1F
100
AcDbEntity
  8
0
  6
Continuous
 62
     7
370
    15
100
AcDbLine
 10
141.5120526607
 20
1289.8035909149
 30
0.0
 11
138.9389797504
 21
1291.1375056121
 31
0.0
  0
LINE
  5
97
330
1F
100
AcDbEntity
  8
0
  6
Continuous
 62
     7
370
    15
100
AcDbLine
 10
143.9538165386
 20
1291.3649941895
 30
0.0
 11
141.5120526607
 21
1289.8035909149
 31
0.0
  0
CIRCLE
  5
98
330
1F
100
AcDbEntity
  8
0
  6
Continuous
 62
     7
370
    15
100
AcDbCircle
 10
141.3807317073
 20
1292.6989082906
 30
0.0
 40
7.785000000000033
  0
LINE
  5
99
330
1F
100
AcDbEntity
  8
0
  6
Continuous
 62
     7
370
    15
100
AcDbLine
 10
143.8225075061
 20
1294.2603121612
 30
0.0
 11
143.9538165386
 21
1291.3649941895
 31
0.0
  0
LINE
  5
9A
330
1F
100
AcDbEntity
  8
0
  6
Continuous
 62
     7
370
    15
100
AcDbLine
 10
138.8076111133
 20
1294.0328235838
 30
0.0
 11
141.2493749912
 21
1295.5942268583
 31
0.0
  0
LINE
  5
9B
330
1F
100
AcDbEntity
  8
0
  6
Continuous
 62
     7
370
    15
100
AcDbLine
 10
141.2493749912
 20
1295.5942268583
 30
0.0
 11
143.8225075061
 21
1294.2603121612
 31
0.0
  0
ARC
  5
9C
330
1F
100
AcDbEntity
  8
0
  6
Continuous
 62
     7
370
    15
100
AcDbCircle
 10
141.3807317073
 20
1292.6989082906
 30
0.0
 40
2.510000000000005
100
AcDbArc
 50
122.5973255621
 51
182.5973255621
  0
ARC
  5
9D
330
1F
100
AcDbEntity
  8
0
  6
Continuous
 62
     7
370
    15
100
AcDbCircle
 10
141.3807317073
 20
1292.6989082906
 30
0.0
 40
2.510000000000005
100
AcDbArc
 50
182.5973255621
 51
242.5973255621
  0
ARC
  5
9E
330
1F
100
AcDbEntity
  8
0
  6
Continuous
 62
     7
370
    15
100
AcDbCircle
 10
141.3807317073
 20
1292.6989082906
 30
0.0
 40
2.510000000000034
100
AcDbArc
 50
302.5973255621
 51
2.5973255621
  0
ARC
  5
9F
330
1F
100
AcDbEntity
  8
0
  6
Continuous
 62
     7
370
    15
100
AcDbCircle
 10
141.3807317073
 20
1292.6989082906
 30
0.0
 40
2.509999999999994
100
AcDbArc
 50
242.5973255621
 51
302.5973255621
  0
ARC
  5
A0
330
1F
100
AcDbEntity
  8
0
  6
Continuous
 62
     7
370
    15
100
AcDbCircle
 10
141.3807317073
 20
1292.6989082906
 30
0.0
 40
2.510000000000006
100
AcDbArc
 50
62.5973255621
 51
122.5973255621
  0
ARC
  5
A1
330
1F
100
AcDbEntity
  8
0
  6
Continuous
 62
     7
370
    15
100
AcDbCircle
 10
141.3807317073
 20
1292.6989082906
 30
0.0
 40
2.510000000000034
100
AcDbArc
 50
2.5973255621
 51
62.5973255621
  0
LINE
  5
A2
330
1F
100
AcDbEntity
  8
0
  6
Continuous
 62
     7
370
    15
100
AcDbLine
 10
-558.7506056373
 20
1350.5942302856
 30
0.0
 11
-556.1775178259
 21
1349.2603118631
 31
0.0
  0
LINE
  5
A3
330
1F
100
AcDbEntity
  8
0
  6
Continuous
 62
     7
370
    15
100
AcDbLine
 10
-561.1923620646
 20
1349.0328232858
 30
0.0
 11
-558.7506056373
 21
1350.5942302856
 31
0.0
  0
LINE
  5
A4
330
1F
100
AcDbEntity
  8
0
  6
Continuous
 62
     7
370
    15
100
AcDbLine
 10
-561.0610232299
 20
1346.1375053141
 30
0.0
 11
-561.1923620646
 21
1349.0328232858
 31
0.0
  0
LINE
  5
A5
330
1F
100
AcDbEntity
  8
0
  6
Continuous
 62
     7
370
    15
100
AcDbLine
 10
-558.4879279678
 20
1344.8035868916
 30
0.0
 11
-561.0610232299
 21
1346.1375053141
 31
0.0
  0
LINE
  5
A6
330
1F
100
AcDbEntity
  8
0
  6
Continuous
 62
     7
370
    15
100
AcDbLine
 10
-556.0461789911
 20
1346.3649901661
 30
0.0
 11
-558.4879279678
 21
1344.8035868916
 31
0.0
  0
LINE
  5
A7
330
1F
100
AcDbEntity
  8
0
  6
Continuous
 62
     7
370
    15
100
AcDbLine
 10
-556.1775178259
 20
1349.2603118631
 30
0.0
 11
-556.0461789911
 21
1346.3649901661
 31
0.0
  0
CIRCLE
  5
A8
330
1F
100
AcDbEntity
  8
0
  6
Continuous
 62
     7
370
    15
100
AcDbCircle
 10
-558.6192682927
 20
1347.6989082906
 30
0.0
 40
7.784999999999995
  0
ARC
  5
A9
330
1F
100
AcDbEntity
  8
0
  6
Continuous
 62
     7
370
    15
100
AcDbCircle
 10
-558.6192682927
 20
1347.6989082906
 30
0.0
 40
2.510000000000034
100
AcDbArc
 50
122.5973255621
 51
182.5973255621
  0
ARC
  5
AA
330
1F
100
AcDbEntity
  8
0
  6
Continuous
 62
     7
370
    15
100
AcDbCircle
 10
-558.6192682927
 20
1347.6989082906
 30
0.0
 40
2.510000000000034
100
AcDbArc
 50
182.5973255621
 51
242.5973255621
  0
ARC
  5
AB
330
1F
100
AcDbEntity
  8
0
  6
Continuous
 62
     7
370
    15
100
AcDbCircle
 10
-558.6192682927
 20
1347.6989082906
 30
0.0
 40
2.510000000000034
100
AcDbArc
 50
302.5973255621
 51
2.5973255621
  0
ARC
  5
AC
330
1F
100
AcDbEntity
  8
0
  6
Continuous
 62
     7
370
    15
100
AcDbCircle
 10
-558.6192682927
 20
1347.6989082906
 30
0.0
 40
2.510000000000034
100
AcDbArc
 50
242.5973255621
 51
302.5973255621
  0
ARC
  5
AD
330
1F
100
AcDbEntity
  8
0
  6
Continuous
 62
     7
370
    15
100
AcDbCircle
 10
-558.6192682927
 20
1347.6989082906
 30
0.0
 40
2.510000000000006
100
AcDbArc
 50
62.5973255621
 51
122.5973255621
  0
ARC
  5
AE
330
1F
100
AcDbEntity
  8
0
  6
Continuous
 62
     7
370
    15
100
AcDbCircle
 10
-558.6192682927
 20
1347.6989082906
 30
0.0
 40
2.510000000000034
100
AcDbArc
 50
2.5973255621
 51
62.5973255621
  0
LINE
  5
AF
330
1F
100
AcDbEntity
  8
0
  6
Continuous
 62
     7
370
    15
100
AcDbLine
 10
143.8225075061
 20
1423.2603128168
 30
0.0
 11
143.9538165386
 21
1420.3649911198
 31
0.0
  0
LINE
  5
B0
330
1F
100
AcDbEntity
  8
0
  6
Continuous
 62
     7
370
    15
100
AcDbLine
 10
141.2493749912
 20
1424.5942293766
 30
0.0
 11
143.8225075061
 21
1423.2603128168
 31
0.0
  0
LINE
  5
B1
330
1F
100
AcDbEntity
  8
0
  6
Continuous
 62
     7
370
    15
100
AcDbLine
 10
138.8076111133
 20
1423.0328242394
 30
0.0
 11
141.2493749912
 21
1424.5942293766
 31
0.0
  0
LINE
  5
B2
330
1F
100
AcDbEntity
  8
0
  6
Continuous
 62
     7
370
    15
100
AcDbLine
 10
138.9389797504
 20
1420.1375044051
 30
0.0
 11
138.8076111133
 21
1423.0328242394
 31
0.0
  0
LINE
  5
B3
330
1F
100
AcDbEntity
  8
0
  6
Continuous
 62
     7
370
    15
100
AcDbLine
 10
141.5120526607
 20
1418.8035878453
 30
0.0
 11
138.9389797504
 21
1420.1375044051
 31
0.0
  0
LINE
  5
B4
330
1F
100
AcDbEntity
  8
0
  6
Continuous
 62
     7
370
    15
100
AcDbLine
 10
143.9538165386
 20
1420.3649911198
 30
0.0
 11
141.5120526607
 21
1418.8035878453
 31
0.0
  0
CIRCLE
  5
B5
330
1F
100
AcDbEntity
  8
0
  6
Continuous
 62
     7
370
    15
100
AcDbCircle
 10
141.3807317073
 20
1421.6989082906
 30
0.0
 40
7.785000000000023
  0
ARC
  5
B6
330
1F
100
AcDbEntity
  8
0
  6
Continuous
 62
     7
370
    15
100
AcDbCircle
 10
141.3807317073
 20
1421.6989082906
 30
0.0
 40
2.510000000000015
100
AcDbArc
 50
182.5973255621
 51
242.5973255621
  0
ARC
  5
B7
330
1F
100
AcDbEntity
  8
0
  6
Continuous
 62
     7
370
    15
100
AcDbCircle
 10
141.3807317073
 20
1421.6989082906
 30
0.0
 40
2.510000000000034
100
AcDbArc
 50
302.5973255621
 51
2.5973255621
  0
ARC
  5
B8
330
1F
100
AcDbEntity
  8
0
  6
Continuous
 62
     7
370
    15
100
AcDbCircle
 10
141.3807317073
 20
1421.6989082906
 30
0.0
 40
2.509999999999994
100
AcDbArc
 50
242.5973255621
 51
302.5973255621
  0
ARC
  5
B9
330
1F
100
AcDbEntity
  8
0
  6
Continuous
 62
     7
370
    15
100
AcDbCircle
 10
141.3807317073
 20
1421.6989082906
 30
0.0
 40
2.510000000000015
100
AcDbArc
 50
122.5973255621
 51
182.5973255621
  0
ARC
  5
BA
330
1F
100
AcDbEntity
  8
0
  6
Continuous
 62
     7
370
    15
100
AcDbCircle
 10
141.3807317073
 20
1421.6989082906
 30
0.0
 40
2.510000000000006
100
AcDbArc
 50
62.5973255621
 51
122.5973255621
  0
ARC
  5
BB
330
1F
100
AcDbEntity
  8
0
  6
Continuous
 62
     7
370
    15
100
AcDbCircle
 10
141.3807317073
 20
1421.6989082906
 30
0.0
 40
2.510000000000034
100
AcDbArc
 50
2.5973255621
 51
62.5973255621
  0
LINE
  5
BC
330
1F
100
AcDbEntity
  8
0
  6
Continuous
 62
     7
370
    15
100
AcDbLine
 10
-558.7506056373
 20
1484.5942298982
 30
0.0
 11
-556.1775178259
 21
1483.260315201
 31
0.0
  0
LINE
  5
BD
330
1F
100
AcDbEntity
  8
0
  6
Continuous
 62
     7
370
    15
100
AcDbLine
 10
-556.0461789911
 20
1480.3649897787
 30
0.0
 11
-558.4879279678
 21
1478.8035865042
 31
0.0
  0
CIRCLE
  5
BE
330
1F
100
AcDbEntity
  8
0
  6
Continuous
 62
     7
370
    15
100
AcDbCircle
 10
-558.6192682927
 20
1481.6989082906
 30
0.0
 40
7.785000000000005
  0
LINE
  5
BF
330
1F
100
AcDbEntity
  8
0
  6
Continuous
 62
     7
370
    15
100
AcDbLine
 10
-556.1775178259
 20
1483.260315201
 30
0.0
 11
-556.0461789911
 21
1480.3649897787
 31
0.0
  0
LINE
  5
C0
330
1F
100
AcDbEntity
  8
0
  6
Continuous
 62
     7
370
    15
100
AcDbLine
 10
-561.0610232299
 20
1480.1375012013
 30
0.0
 11
-561.1923620646
 21
1483.0328266236
 31
0.0
  0
LINE
  5
C1
330
1F
100
AcDbEntity
  8
0
  6
Continuous
 62
     7
370
    15
100
AcDbLine
 10
-558.4879279678
 20
1478.8035865042
 30
0.0
 11
-561.0610232299
 21
1480.1375012013
 31
0.0
  0
LINE
  5
C2
330
1F
100
AcDbEntity
  8
0
  6
Continuous
 62
     7
370
    15
100
AcDbLine
 10
-561.1923620646
 20
1483.0328266236
 30
0.0
 11
-558.7506056373
 21
1484.5942298982
 31
0.0
  0
ARC
  5
C3
330
1F
100
AcDbEntity
  8
0
  6
Continuous
 62
     7
370
    15
100
AcDbCircle
 10
-558.6192682927
 20
1481.6989082906
 30
0.0
 40
2.510000000000034
100
AcDbArc
 50
2.5973255621
 51
62.5973255621
  0
ARC
  5
C4
330
1F
100
AcDbEntity
  8
0
  6
Continuous
 62
     7
370
    15
100
AcDbCircle
 10
-558.6192682927
 20
1481.6989082906
 30
0.0
 40
2.510000000000034
100
AcDbArc
 50
122.5973255621
 51
182.5973255621
  0
ARC
  5
C5
330
1F
100
AcDbEntity
  8
0
  6
Continuous
 62
     7
370
    15
100
AcDbCircle
 10
-558.6192682927
 20
1481.6989082906
 30
0.0
 40
2.510000000000034
100
AcDbArc
 50
62.5973255621
 51
122.5973255621
  0
ARC
  5
C6
330
1F
100
AcDbEntity
  8
0
  6
Continuous
 62
     7
370
    15
100
AcDbCircle
 10
-558.6192682927
 20
1481.6989082906
 30
0.0
 40
2.510000000000059
100
AcDbArc
 50
182.5973255621
 51
242.5973255621
  0
ARC
  5
C7
330
1F
100
AcDbEntity
  8
0
  6
Continuous
 62
     7
370
    15
100
AcDbCircle
 10
-558.6192682927
 20
1481.6989082906
 30
0.0
 40
2.510000000000034
100
AcDbArc
 50
302.5973255621
 51
2.5973255621
  0
ARC
  5
C8
330
1F
100
AcDbEntity
  8
0
  6
Continuous
 62
     7
370
    15
100
AcDbCircle
 10
-558.6192682927
 20
1481.6989082906
 30
0.0
 40
2.510000000000059
100
AcDbArc
 50
242.5973255621
 51
302.5973255621
  0
LINE
  5
C9
330
1F
100
AcDbEntity
  8
0
  6
Continuous
 62
     7
370
    15
100
AcDbLine
 10
-558.4879279678
 20
1418.8035878453
 30
0.0
 11
-561.0610232299
 21
1420.1375044051
 31
0.0
  0
LINE
  5
CA
330
1F
100
AcDbEntity
  8
0
  6
Continuous
 62
     7
370
    15
100
AcDbLine
 10
-561.1923620646
 20
1423.0328242394
 30
0.0
 11
-558.7506056373
 21
1424.5942293766
 31
0.0
  0
LINE
  5
CB
330
1F
100
AcDbEntity
  8
0
  6
Continuous
 62
     7
370
    15
100
AcDbLine
 10
-561.0610232299
 20
1420.1375044051
 30
0.0
 11
-561.1923620646
 21
1423.0328242394
 31
0.0
  0
LINE
  5
CC
330
1F
100
AcDbEntity
  8
0
  6
Continuous
 62
     7
370
    15
100
AcDbLine
 10
-556.1775178259
 20
1423.2603128168
 30
0.0
 11
-556.0461789911
 21
1420.3649911198
 31
0.0
  0
LINE
  5
CD
330
1F
100
AcDbEntity
  8
0
  6
Continuous
 62
     7
370
    15
100
AcDbLine
 10
-556.0461789911
 20
1420.3649911198
 30
0.0
 11
-558.4879279678
 21
1418.8035878453
 31
0.0
  0
CIRCLE
  5
CE
330
1F
100
AcDbEntity
  8
0
  6
Continuous
 62
     7
370
    15
100
AcDbCircle
 10
-558.6192682927
 20
1421.6989082906
 30
0.0
 40
7.785000000000005
  0
LINE
  5
CF
330
1F
100
AcDbEntity
  8
0
  6
Continuous
 62
     7
370
    15
100
AcDbLine
 10
-558.7506056373
 20
1424.5942293766
 30
0.0
 11
-556.1775178259
 21
1423.2603128168
 31
0.0
  0
ARC
  5
D0
330
1F
100
AcDbEntity
  8
0
  6
Continuous
 62
     7
370
    15
100
AcDbCircle
 10
-558.6192682927
 20
1421.6989082906
 30
0.0
 40
2.510000000000023
100
AcDbArc
 50
182.5973255621
 51
242.5973255621
  0
ARC
  5
D1
330
1F
100
AcDbEntity
  8
0
  6
Continuous
 62
     7
370
    15
100
AcDbCircle
 10
-558.6192682927
 20
1421.6989082906
 30
0.0
 40
2.510000000000034
100
AcDbArc
 50
302.5973255621
 51
2.5973255621
  0
ARC
  5
D2
330
1F
100
AcDbEntity
  8
0
  6
Continuous
 62
     7
370
    15
100
AcDbCircle
 10
-558.6192682927
 20
1421.6989082906
 30
0.0
 40
2.510000000000034
100
AcDbArc
 50
242.5973255621
 51
302.5973255621
  0
ARC
  5
D3
330
1F
100
AcDbEntity
  8
0
  6
Continuous
 62
     7
370
    15
100
AcDbCircle
 10
-558.6192682927
 20
1421.6989082906
 30
0.0
 40
2.510000000000023
100
AcDbArc
 50
122.5973255621
 51
182.5973255621
  0
ARC
  5
D4
330
1F
100
AcDbEntity
  8
0
  6
Continuous
 62
     7
370
    15
100
AcDbCircle
 10
-558.6192682927
 20
1421.6989082906
 30
0.0
 40
2.510000000000006
100
AcDbArc
 50
62.5973255621
 51
122.5973255621
  0
ARC
  5
D5
330
1F
100
AcDbEntity
  8
0
  6
Continuous
 62
     7
370
    15
100
AcDbCircle
 10
-558.6192682927
 20
1421.6989082906
 30
0.0
 40
2.510000000000034
100
AcDbArc
 50
2.5973255621
 51
62.5973255621
  0
LINE
  5
D6
330
1F
100
AcDbEntity
  8
0
  6
Continuous
 62
     7
370
    15
100
AcDbLine
 10
143.8225075061
 20
1483.260315201
 30
0.0
 11
143.9538165386
 21
1480.3649897787
 31
0.0
  0
LINE
  5
D7
330
1F
100
AcDbEntity
  8
0
  6
Continuous
 62
     7
370
    15
100
AcDbLine
 10
141.2493749912
 20
1484.5942298982
 30
0.0
 11
143.8225075061
 21
1483.260315201
 31
0.0
  0
LINE
  5
D8
330
1F
100
AcDbEntity
  8
0
  6
Continuous
 62
     7
370
    15
100
AcDbLine
 10
138.8076111133
 20
1483.0328266236
 30
0.0
 11
141.2493749912
 21
1484.5942298982
 31
0.0
  0
LINE
  5
D9
330
1F
100
AcDbEntity
  8
0
  6
Continuous
 62
     7
370
    15
100
AcDbLine
 10
143.9538165386
 20
1480.3649897787
 30
0.0
 11
141.5120526607
 21
1478.8035865042
 31
0.0
  0
CIRCLE
  5
DA
330
1F
100
AcDbEntity
  8
0
  6
Continuous
 62
     7
370
    15
100
AcDbCircle
 10
141.3807317073
 20
1481.6989082906
 30
0.0
 40
7.784999999999995
  0
LINE
  5
DB
330
1F
100
AcDbEntity
  8
0
  6
Continuous
 62
     7
370
    15
100
AcDbLine
 10
141.5120526607
 20
1478.8035865042
 30
0.0
 11
138.9389797504
 21
1480.1375012013
 31
0.0
  0
LINE
  5
DC
330
1F
100
AcDbEntity
  8
0
  6
Continuous
 62
     7
370
    15
100
AcDbLine
 10
138.9389797504
 20
1480.1375012013
 30
0.0
 11
138.8076111133
 21
1483.0328266236
 31
0.0
  0
ARC
  5
DD
330
1F
100
AcDbEntity
  8
0
  6
Continuous
 62
     7
370
    15
100
AcDbCircle
 10
141.3807317073
 20
1481.6989082906
 30
0.0
 40
2.510000000000005
100
AcDbArc
 50
122.5973255621
 51
182.5973255621
  0
ARC
  5
DE
330
1F
100
AcDbEntity
  8
0
  6
Continuous
 62
     7
370
    15
100
AcDbCircle
 10
141.3807317073
 20
1481.6989082906
 30
0.0
 40
2.510000000000165
100
AcDbArc
 50
302.5973255621
 51
2.5973255621
  0
ARC
  5
DF
330
1F
100
AcDbEntity
  8
0
  6
Continuous
 62
     7
370
    15
100
AcDbCircle
 10
141.3807317073
 20
1481.6989082906
 30
0.0
 40
2.510000000000165
100
AcDbArc
 50
242.5973255621
 51
302.5973255621
  0
ARC
  5
E0
330
1F
100
AcDbEntity
  8
0
  6
Continuous
 62
     7
370
    15
100
AcDbCircle
 10
141.3807317073
 20
1481.6989082906
 30
0.0
 40
2.510000000000005
100
AcDbArc
 50
182.5973255621
 51
242.5973255621
  0
ARC
  5
E1
330
1F
100
AcDbEntity
  8
0
  6
Continuous
 62
     7
370
    15
100
AcDbCircle
 10
141.3807317073
 20
1481.6989082906
 30
0.0
 40
2.509999999999973
100
AcDbArc
 50
62.5973255621
 51
122.5973255621
  0
ARC
  5
E2
330
1F
100
AcDbEntity
  8
0
  6
Continuous
 62
     7
370
    15
100
AcDbCircle
 10
141.3807317073
 20
1481.6989082906
 30
0.0
 40
2.510000000000023
100
AcDbArc
 50
2.5973255621
 51
62.5973255621
  0
LINE
  5
E3
330
1F
100
AcDbEntity
  8
0
  6
Continuous
 62
     7
370
    15
100
AcDbLine
 10
1077.0898028667
 20
1444.8553438398
 30
0.0
 11
1076.7141743953
 21
1441.9931399736
 31
0.0
  0
LWPOLYLINE
  5
E4
330
1F
100
AcDbEntity
  8
0
  6
Continuous
 62
     7
370
    15
100
AcDbPolyline
 90
        9
 70
   128
 43
0.0
 10
1076.7141743953
 20
1441.9931399736
 10
1076.7100020702
 20
1441.9914412412
 10
1076.6979619319
 20
1441.986408374
 10
1076.6781731899
 20
1441.9782313618
 10
1076.6517087276
 20
1441.9672305796
 10
1076.6194030101
 20
1441.9538269851
 10
1076.5824481304
 20
1441.9385309431
 10
1076.5423938091
 20
1441.9219385001
 10
1076.500789767
 20
1441.9046792302
  0
LINE
  5
E5
330
1F
100
AcDbEntity
  8
0
  6
Continuous
 62
     7
370
    15
100
AcDbLine
 10
1076.500789767
 20
1441.9046792302
 30
0.0
 11
1076.9065781886
 21
1444.9958580646
 31
0.0
  0
LWPOLYLINE
  5
E6
330
1F
100
AcDbEntity
  8
0
  6
Continuous
 62
     7
370
    15
100
AcDbPolyline
 90
        9
 70
   128
 43
0.0
 10
1077.0898028667
 20
1444.8553438398
 10
1077.0863457973
 20
1444.8580446753
 10
1077.0758553798
 20
1444.8660391483
 10
1077.0589276607
 20
1444.8790255103
 10
1077.0361586864
 20
1444.8965008471
 10
1077.0083829219
 20
1444.9177946064
 10
1076.9766732509
 20
1444.9420872244
 10
1076.9423409755
 20
1444.9684473786
 10
1076.9065781886
 20
1444.9958580646
  0
LINE
  5
E7
330
1F
100
AcDbEntity
  8
0
  6
Continuous
 62
     7
370
    15
100
AcDbLine
 10
1081.8549557979
 20
1441.2019553694
 30
0.0
 11
1078.9749785716
 21
1440.0077278826
 31
0.0
  0
ARC
  5
E8
330
1F
100
AcDbEntity
  8
0
  6
Continuous
 62
     7
370
    15
100
AcDbCircle
 10
999.2755005287
 20
1450.5804878015
 30
0.0
 40
80.39769929931612
100
AcDbArc
 50
352.4433873604
 51
352.6079658315
  0
LINE
  5
E9
330
1F
100
AcDbEntity
  8
0
  6
Continuous
 62
     7
370
    15
100
AcDbLine
 10
1079.0050193126
 20
1440.2367028508
 30
0.0
 11
1081.6716119106
 21
1441.3424733195
 31
0.0
  0
LWPOLYLINE
  5
EA
330
1F
100
AcDbEntity
  8
0
  6
Continuous
 62
     7
370
    15
100
AcDbPolyline
 90
       10
 70
   128
 43
0.0
 10
1081.8549557979
 20
1441.2019553694
 10
1081.8231269176
 20
1441.2263560209
 10
1081.7922517116
 20
1441.2500153396
 10
1081.7632838542
 20
1441.2722143445
 10
1081.7370578105
 20
1441.292278758
 10
1081.7145272548
 20
1441.3095976326
 10
1081.6961690242
 20
1441.3236457023
 10
1081.6826983745
 20
1441.3339982841
 10
1081.6744729335
 20
1441.3403387281
 10
1081.6716119106
 20
1441.3424733195
  0
LINE
  5
EB
330
1F
100
AcDbEntity
  8
0
  6
Continuous
 62
     7
370
    15
100
AcDbLine
 10
1082.2606250102
 20
1444.2931379292
 30
0.0
 11
1081.8549557979
 21
1441.2019553694
 31
0.0
  0
LINE
  5
EC
330
1F
100
AcDbEntity
  8
0
  6
Continuous
 62
     7
370
    15
100
AcDbLine
 10
1081.6716119106
 20
1441.3424733195
 30
0.0
 11
1082.0473595912
 21
1444.2046771857
 31
0.0
  0
LWPOLYLINE
  5
ED
330
1F
100
AcDbEntity
  8
0
  6
Continuous
 62
     7
370
    15
100
AcDbPolyline
 90
       10
 70
   128
 43
0.0
 10
1082.2606250102
 20
1444.2931379292
 10
1082.2235509212
 20
1444.277774832
 10
1082.187668925
 20
1444.2628811214
 10
1082.1539326961
 20
1444.2489075574
 10
1082.1235343273
 20
1444.236275098
 10
1082.0971890743
 20
1444.2253711733
 10
1082.0758506114
 20
1444.2165273342
 10
1082.0601149852
 20
1444.2100118014
 10
1082.050578242
 20
1444.2060182902
 10
1082.0473595912
 20
1444.2046771857
  0
LINE
  5
EE
330
1F
100
AcDbEntity
  8
0
  6
Continuous
 62
     7
370
    15
100
AcDbLine
 10
1082.0473595912
 20
1444.2046771857
 30
0.0
 11
1079.7563954646
 21
1445.9611105833
 31
0.0
  0
LWPOLYLINE
  5
EF
330
1F
100
AcDbEntity
  8
0
  6
Continuous
 62
     7
370
    15
100
AcDbPolyline
 90
       10
 70
   128
 43
0.0
 10
1079.7563954646
 20
1445.9611105833
 10
1079.7568723018
 20
1445.9645900044
 10
1079.758183604
 20
1445.9749202344
 10
1079.7604485805
 20
1445.9917883489
 10
1079.7634288127
 20
1446.014683983
 10
1079.7671243007
 20
1446.0429067823
 10
1079.7714158351
 20
1446.07559993
 10
1079.7761842067
 20
1446.1117724988
 10
1079.7811909969
 20
1446.1503255281
 10
1079.7864362056
 20
1446.1900892767
  0
LINE
  5
F0
330
1F
100
AcDbEntity
  8
0
  6
Continuous
 62
     7
370
    15
100
AcDbLine
 10
1079.7864362056
 20
1446.1900892767
 30
0.0
 11
1082.2606250102
 21
1444.2931379292
 31
0.0
  0
CIRCLE
  5
F1
330
1F
100
AcDbEntity
  8
0
  6
Continuous
 62
     7
370
    15
100
AcDbCircle
 10
1079.3807317073
 20
1443.0989082906
 30
0.0
 40
12.91715728752546
  0
CIRCLE
  5
F2
330
1F
100
AcDbEntity
  8
0
  6
Continuous
 62
     7
370
    15
100
AcDbCircle
 10
1079.3807317073
 20
1443.0989082906
 30
0.0
 40
13.05857864376278
  0
LINE
  5
F3
330
1F
100
AcDbEntity
  8
0
  6
Continuous
 62
     7
370
    15
100
AcDbLine
 10
1076.9065781886
 20
1444.9958580646
 30
0.0
 11
1079.7864362056
 21
1446.1900892767
 31
0.0
  0
LINE
  5
F4
330
1F
100
AcDbEntity
  8
0
  6
Continuous
 62
     7
370
    15
100
AcDbLine
 10
1078.9749785716
 20
1440.0077278826
 30
0.0
 11
1076.500789767
 21
1441.9046792302
 31
0.0
  0
LINE
  5
F5
330
1F
100
AcDbEntity
  8
0
  6
Continuous
 62
     7
370
    15
100
AcDbLine
 10
1076.7141743953
 20
1441.9931399736
 30
0.0
 11
1079.0050193126
 21
1440.2367028508
 31
0.0
  0
LINE
  5
F6
330
1F
100
AcDbEntity
  8
0
  6
Continuous
 62
     7
370
    15
100
AcDbLine
 10
1079.7563954646
 20
1445.9611105833
 30
0.0
 11
1077.0898028667
 21
1444.8553438398
 31
0.0
  0
CIRCLE
  5
F7
330
1F
100
AcDbEntity
  8
0
  6
Continuous
 62
     7
370
    15
100
AcDbCircle
 10
1079.3807317073
 20
1443.0989082906
 30
0.0
 40
14.94142135623742
  0
CIRCLE
  5
F8
330
1F
100
AcDbEntity
  8
0
  6
Continuous
 62
     7
370
    15
100
AcDbCircle
 10
1079.3807317073
 20
1443.0989082906
 30
0.0
 40
15.00000000000001
  0
CIRCLE
  5
F9
330
1F
100
AcDbEntity
  8
0
  6
Continuous
 62
     7
370
    15
100
AcDbCircle
 10
-592.6192682927
 20
1443.0989082906
 30
0.0
 40
12.91715728752536
  0
CIRCLE
  5
FA
330
1F
100
AcDbEntity
  8
0
  6
Continuous
 62
     7
370
    15
100
AcDbCircle
 10
-592.6192682927
 20
1443.0989082906
 30
0.0
 40
13.05857864376278
  0
LINE
  5
FB
330
1F
100
AcDbEntity
  8
0
  6
Continuous
 62
     7
370
    15
100
AcDbLine
 10
-590.1450872963
 20
1441.2019553694
 30
0.0
 11
-593.0249825661
 21
1440.0077278826
 31
0.0
  0
LWPOLYLINE
  5
FC
330
1F
100
AcDbEntity
  8
0
  6
Continuous
 62
     7
370
    15
100
AcDbPolyline
 90
        9
 70
   128
 43
0.0
 10
-593.0249825661
 20
1440.0077278826
 10
-593.0191189592
 20
1440.0523978385
 10
-593.0134863203
 20
1440.095354161
 10
-593.008285815
 20
1440.1349390957
 10
-593.0037335103
 20
1440.1696401748
 10
-593.0000007694
 20
1440.1981162939
 10
-592.9972217028
 20
1440.2192759428
 10
-592.9955080693
 20
1440.2323032829
 10
-592.9949343746
 20
1440.2367028508
  0
LINE
  5
FD
330
1F
100
AcDbEntity
  8
0
  6
Continuous
 62
     7
370
    15
100
AcDbLine
 10
-592.9949343746
 20
1440.2367028508
 30
0.0
 11
-590.3283566778
 21
1441.3424733195
 31
0.0
  0
LWPOLYLINE
  5
FE
330
1F
100
AcDbEntity
  8
0
  6
Continuous
 62
     7
370
    15
100
AcDbPolyline
 90
       10
 70
   128
 43
0.0
 10
-590.1450872963
 20
1441.2019553694
 10
-590.176908726
 20
1441.2263560209
 10
-590.2077690308
 20
1441.2500153396
 10
-590.236721987
 20
1441.2722143445
 10
-590.2628884261
 20
1441.292278758
 10
-590.2854785865
 20
1441.3095976326
 10
-590.3038070147
 20
1441.3236457023
 10
-590.3173074668
 20
1441.3339982841
 10
-590.3255776112
 20
1441.3403387281
 10
-590.3283566778
 20
1441.3424733195
  0
LINE
  5
FF
330
1F
100
AcDbEntity
  8
0
  6
Continuous
 62
     7
370
    15
100
AcDbLine
 10
-594.9101806228
 20
1444.8553438398
 30
0.0
 11
-595.2858388965
 21
1441.9931399736
 31
0.0
  0
LWPOLYLINE
  5
100
330
1F
100
AcDbEntity
  8
0
  6
Continuous
 62
     7
370
    15
100
AcDbPolyline
 90
        9
 70
   128
 43
0.0
 10
-595.2858388965
 20
1441.9931399736
 10
-595.2899367159
 20
1441.9914412412
 10
-595.3020811622
 20
1441.986408374
 10
-595.3217953985
 20
1441.9782313618
 10
-595.3483194654
 20
1441.9672305796
 10
-595.3806475346
 20
1441.9538269851
 10
-595.4175279086
 20
1441.9385309431
 10
-595.4575524275
 20
1441.9219385001
 10
-595.4991639202
 20
1441.9046792302
  0
LINE
  5
101
330
1F
100
AcDbEntity
  8
0
  6
Continuous
 62
     7
370
    15
100
AcDbLine
 10
-595.4991639202
 20
1441.9046792302
 30
0.0
 11
-595.0934500044
 21
1444.9958580646
 31
0.0
  0
LWPOLYLINE
  5
102
330
1F
100
AcDbEntity
  8
0
  6
Continuous
 62
     7
370
    15
100
AcDbPolyline
 90
        9
 70
   128
 43
0.0
 10
-594.9101806228
 20
1444.8553438398
 10
-594.9136972969
 20
1444.8580446753
 10
-594.9241281097
 20
1444.8660391483
 10
-594.9410632794
 20
1444.8790255103
 10
-594.9638546055
 20
1444.8965008471
 10
-594.9916303699
 20
1444.9177946064
 10
-595.0233176892
 20
1444.9420872244
 10
-595.0576946681
 20
1444.9684473786
 10
-595.0934500044
 20
1444.9958580646
  0
LINE
  5
103
330
1F
100
AcDbEntity
  8
0
  6
Continuous
 62
     7
370
    15
100
AcDbLine
 10
-589.7393659299
 20
1444.2931379292
 30
0.0
 11
-590.1450872963
 21
1441.2019553694
 31
0.0
  0
LINE
  5
104
330
1F
100
AcDbEntity
  8
0
  6
Continuous
 62
     7
370
    15
100
AcDbLine
 10
-592.2135547345
 20
1446.1900892767
 30
0.0
 11
-589.7393659299
 21
1444.2931379292
 31
0.0
  0
LINE
  5
105
330
1F
100
AcDbEntity
  8
0
  6
Continuous
 62
     7
370
    15
100
AcDbLine
 10
-595.0934500044
 20
1444.9958580646
 30
0.0
 11
-592.2135547345
 21
1446.1900892767
 31
0.0
  0
LINE
  5
106
330
1F
100
AcDbEntity
  8
0
  6
Continuous
 62
     7
370
    15
100
AcDbLine
 10
-593.0249825661
 20
1440.0077278826
 30
0.0
 11
-595.4991639202
 21
1441.9046792302
 31
0.0
  0
LINE
  5
107
330
1F
100
AcDbEntity
  8
0
  6
Continuous
 62
     7
370
    15
100
AcDbLine
 10
-595.2858388965
 20
1441.9931399736
 30
0.0
 11
-592.9949343746
 21
1440.2367028508
 31
0.0
  0
LINE
  5
108
330
1F
100
AcDbEntity
  8
0
  6
Continuous
 62
     7
370
    15
100
AcDbLine
 10
-590.3283566778
 20
1441.3424733195
 30
0.0
 11
-589.9526984041
 21
1444.2046771857
 31
0.0
  0
LWPOLYLINE
  5
109
330
1F
100
AcDbEntity
  8
0
  6
Continuous
 62
     7
370
    15
100
AcDbPolyline
 90
       10
 70
   128
 43
0.0
 10
-589.7393659299
 20
1444.2931379292
 10
-589.7764102166
 20
1444.277774832
 10
-589.8123294656
 20
1444.2628811214
 10
-589.8460358923
 20
1444.2489075574
 10
-589.8764938657
 20
1444.236275098
 10
-589.9027869647
 20
1444.2253711733
 10
-589.9241179769
 20
1444.2165273342
 10
-589.9398312514
 20
1444.2100118014
 10
-589.9494574015
 20
1444.2060182902
 10
-589.9526984041
 20
1444.2046771857
  0
LINE
  5
10A
330
1F
100
AcDbEntity
  8
0
  6
Continuous
 62
     7
370
    15
100
AcDbLine
 10
-592.243602926
 20
1445.9611105833
 30
0.0
 11
-594.9101806228
 21
1444.8553438398
 31
0.0
  0
LWPOLYLINE
  5
10B
330
1F
100
AcDbEntity
  8
0
  6
Continuous
 62
     7
370
    15
100
AcDbPolyline
 90
       10
 70
   128
 43
0.0
 10
-592.243602926
 20
1445.9611105833
 10
-592.2431484406
 20
1445.9645900044
 10
-592.2417924349
 20
1445.9749202344
 10
-592.2395796125
 20
1445.9917883489
 10
-592.2365695779
 20
1446.014683983
 10
-592.2328666394
 20
1446.0429067823
 10
-592.228575105
 20
1446.07559993
 10
-592.2238290851
 20
1446.1117724988
 10
-592.2187701409
 20
1446.1503255281
 10
-592.2135547345
 20
1446.1900892767
  0
LINE
  5
10C
330
1F
100
AcDbEntity
  8
0
  6
Continuous
 62
     7
370
    15
100
AcDbLine
 10
-589.9526984041
 20
1444.2046771857
 30
0.0
 11
-592.243602926
 21
1445.9611105833
 31
0.0
  0
CIRCLE
  5
10D
330
1F
100
AcDbEntity
  8
0
  6
Continuous
 62
     7
370
    15
100
AcDbCircle
 10
-592.6192682927
 20
1443.0989082906
 30
0.0
 40
14.94142135623742
  0
CIRCLE
  5
10E
330
1F
100
AcDbEntity
  8
0
  6
Continuous
 62
     7
370
    15
100
AcDbCircle
 10
-592.6192682927
 20
1443.0989082906
 30
0.0
 40
15.00000000000001
  0
CIRCLE
  5
10F
330
1F
100
AcDbEntity
  8
0
  6
Continuous
 62
     7
370
    15
100
AcDbCircle
 10
-558.6192682927
 20
1292.6989082906
 30
0.0
 40
15.0
  0
CIRCLE
  5
110
330
1F
100
AcDbEntity
  8
0
  6
Continuous
 62
     7
370
    15
100
AcDbCircle
 10
-558.6192682927
 20
1292.6989082906
 30
0.0
 40
13.00000000000001
  0
CIRCLE
  5
111
330
1F
100
AcDbEntity
  8
0
  6
Continuous
 62
     7
370
    15
100
AcDbCircle
 10
-558.6192682927
 20
1292.6989082906
 30
0.0
 40
8.750000000000002
  0
CIRCLE
  5
112
330
1F
100
AcDbEntity
  8
0
  6
Continuous
 62
     7
370
    15
100
AcDbCircle
 10
141.3807317073
 20
1347.6989082906
 30
0.0
 40
8.7500000000002
  0
CIRCLE
  5
113
330
1F
100
AcDbEntity
  8
0
  6
Continuous
 62
     7
370
    15
100
AcDbCircle
 10
141.3807317073
 20
1347.6989082906
 30
0.0
 40
12.99999999999984
  0
CIRCLE
  5
114
330
1F
100
AcDbEntity
  8
0
  6
Continuous
 62
     7
370
    15
100
AcDbCircle
 10
141.3807317073
 20
1347.6989082906
 30
0.0
 40
14.99999999999987
  0
CIRCLE
  5
115
330
1F
100
AcDbEntity
  8
0
  6
Continuous
 62
     7
370
    15
100
AcDbCircle
 10
-558.6192682927
 20
1347.6989082906
 30
0.0
 40
15.00000000000011
  0
CIRCLE
  5
116
330
1F
100
AcDbEntity
  8
0
  6
Continuous
 62
     7
370
    15
100
AcDbCircle
 10
-558.6192682927
 20
1347.6989082906
 30
0.0
 40
13.00000000000002
  0
CIRCLE
  5
117
330
1F
100
AcDbEntity
  8
0
  6
Continuous
 62
     7
370
    15
100
AcDbCircle
 10
-558.6192682927
 20
1347.6989082906
 30
0.0
 40
8.74999999999998
  0
CIRCLE
  5
118
330
1F
100
AcDbEntity
  8
0
  6
Continuous
 62
     7
370
    15
100
AcDbCircle
 10
141.3807317073
 20
1292.6989082906
 30
0.0
 40
8.750000000000002
  0
CIRCLE
  5
119
330
1F
100
AcDbEntity
  8
0
  6
Continuous
 62
     7
370
    15
100
AcDbCircle
 10
141.3807317073
 20
1292.6989082906
 30
0.0
 40
12.99999999999998
  0
CIRCLE
  5
11A
330
1F
100
AcDbEntity
  8
0
  6
Continuous
 62
     7
370
    15
100
AcDbCircle
 10
141.3807317073
 20
1292.6989082906
 30
0.0
 40
15.0
  0
CIRCLE
  5
11B
330
1F
100
AcDbEntity
  8
0
  6
Continuous
 62
     7
370
    15
100
AcDbCircle
 10
-558.6192682927
 20
1421.6989082906
 30
0.0
 40
15.0
  0
CIRCLE
  5
11C
330
1F
100
AcDbEntity
  8
0
  6
Continuous
 62
     7
370
    15
100
AcDbCircle
 10
-558.6192682927
 20
1421.6989082906
 30
0.0
 40
13.00000000000001
  0
CIRCLE
  5
11D
330
1F
100
AcDbEntity
  8
0
  6
Continuous
 62
     7
370
    15
100
AcDbCircle
 10
-558.6192682927
 20
1421.6989082906
 30
0.0
 40
8.750000000000002
  0
CIRCLE
  5
11E
330
1F
100
AcDbEntity
  8
0
  6
Continuous
 62
     7
370
    15
100
AcDbCircle
 10
141.3807317073
 20
1421.6989082906
 30
0.0
 40
8.750000000000002
  0
CIRCLE
  5
11F
330
1F
100
AcDbEntity
  8
0
  6
Continuous
 62
     7
370
    15
100
AcDbCircle
 10
141.3807317073
 20
1421.6989082906
 30
0.0
 40
12.99999999999998
  0
CIRCLE
  5
120
330
1F
100
AcDbEntity
  8
0
  6
Continuous
 62
     7
370
    15
100
AcDbCircle
 10
141.3807317073
 20
1421.6989082906
 30
0.0
 40
15.0
  0
CIRCLE
  5
121
330
1F
100
AcDbEntity
  8
0
  6
Continuous
 62
     7
370
    15
100
AcDbCircle
 10
141.3807317073
 20
1481.6989082906
 30
0.0
 40
15.0
  0
CIRCLE
  5
122
330
1F
100
AcDbEntity
  8
0
  6
Continuous
 62
     7
370
    15
100
AcDbCircle
 10
141.3807317073
 20
1481.6989082906
 30
0.0
 40
12.99999999999997
  0
CIRCLE
  5
123
330
1F
100
AcDbEntity
  8
0
  6
Continuous
 62
     7
370
    15
100
AcDbCircle
 10
141.3807317073
 20
1481.6989082906
 30
0.0
 40
8.750000000000002
  0
CIRCLE
  5
124
330
1F
100
AcDbEntity
  8
0
  6
Continuous
 62
     7
370
    15
100
AcDbCircle
 10
-558.6192682927
 20
1481.6989082906
 30
0.0
 40
8.750000000000002
  0
CIRCLE
  5
125
330
1F
100
AcDbEntity
  8
0
  6
Continuous
 62
     7
370
    15
100
AcDbCircle
 10
-558.6192682927
 20
1481.6989082906
 30
0.0
 40
15.0
  0
CIRCLE
  5
126
330
1F
100
AcDbEntity
  8
0
  6
Continuous
 62
     7
370
    15
100
AcDbCircle
 10
-558.6192682927
 20
1481.6989082906
 30
0.0
 40
12.99999999999999
  0
ARC
  5
127
330
1F
100
AcDbEntity
  8
0
  6
Continuous
 62
     7
370
    15
100
AcDbCircle
 10
141.3807317073
 20
1481.6989082906
 30
0.0
 40
29.00000000000009
100
AcDbArc
 50
301.1473899215
 51
238.8526100785
  0
ARC
  5
128
330
1F
100
AcDbEntity
  8
0
  6
Continuous
 62
     7
370
    15
100
AcDbCircle
 10
-558.6192682927
 20
1481.6989082906
 30
0.0
 40
28.99999999999999
100
AcDbArc
 50
301.1473899215
 51
238.8526100785
  0
LINE
  5
129
330
1F
100
AcDbEntity
  8
0
  6
Continuous
 62
     7
370
    15
100
AcDbLine
 10
-543.6192662065
 20
1481.6989119265
 30
0.0
 11
-543.6192662065
 21
1292.6989088866
 31
0.0
  0
LINE
  5
12A
330
1F
100
AcDbEntity
  8
0
  6
Continuous
 62
     7
370
    15
100
AcDbLine
 10
-573.6192673986
 20
1292.6989088866
 30
0.0
 11
-573.6192673986
 21
1481.6989119265
 31
0.0
  0
LINE
  5
12B
330
1F
100
AcDbEntity
  8
0
  6
Continuous
 62
     7
370
    15
100
AcDbLine
 10
156.3807293231
 20
1481.6989119265
 30
0.0
 11
156.3807293231
 21
1292.6989088866
 31
0.0
  0
LINE
  5
12C
330
1F
100
AcDbEntity
  8
0
  6
Continuous
 62
     7
370
    15
100
AcDbLine
 10
126.3807579334
 20
1292.6989088866
 30
0.0
 11
126.3807579334
 21
1481.6989119265
 31
0.0
  0
LINE
  5
12D
330
1F
100
AcDbEntity
  8
0
  6
Continuous
 62
     7
370
    15
100
AcDbLine
 10
241.3807078655
 20
-647.3010440257
 30
0.0
 11
241.3807078655
 21
1402.6989082906
 31
0.0
  0
LINE
  5
12E
330
1F
100
AcDbEntity
  8
0
  6
Continuous
 62
     7
370
    15
100
AcDbLine
 10
-658.6192682927
 20
-647.3010440257
 30
0.0
 11
241.3807078655
 21
-647.3010440257
 31
0.0
  0
LINE
  5
12F
330
1F
100
AcDbEntity
  8
0
  6
Continuous
 62
     7
370
    15
100
AcDbLine
 10
-658.6192682927
 20
1402.6989082906
 30
0.0
 11
-658.6192682927
 21
-647.3010440257
 31
0.0
  0
LINE
  5
130
330
1F
100
AcDbEntity
  8
0
  6
Continuous
 62
     7
370
    15
100
AcDbLine
 10
241.3807078655
 20
1402.6989082906
 30
0.0
 11
156.3807293231
 21
1402.6989082906
 31
0.0
  0
LINE
  5
131
330
1F
100
AcDbEntity
  8
0
  6
Continuous
 62
     7
370
    15
100
AcDbLine
 10
126.3807579334
 20
1402.6989082906
 30
0.0
 11
-543.6192662065
 21
1402.6989082906
 31
0.0
  0
LINE
  5
132
330
1F
100
AcDbEntity
  8
0
  6
Continuous
 62
     7
370
    15
100
AcDbLine
 10
-573.6192673986
 20
1402.6989082906
 30
0.0
 11
-658.6192682927
 21
1402.6989082906
 31
0.0
  0
CIRCLE
  5
133
330
1F
100
AcDbEntity
  8
0
  6
Continuous
 62
     7
370
    15
100
AcDbCircle
 10
1013.3807317073
 20
1443.0989082906
 30
0.0
 40
6.44999999999999
  0
CIRCLE
  5
134
330
1F
100
AcDbEntity
  8
0
  6
Continuous
 62
     7
370
    15
100
AcDbCircle
 10
1013.3807317073
 20
1443.0989082906
 30
0.0
 40
7.450000000000189
  0
LINE
  5
135
330
1F
100
AcDbEntity
  8
0
  6
Continuous
 62
     7
370
    15
100
AcDbLine
 10
1015.8645077998
 20
1444.5700089547
 30
0.0
 11
1013.3485957439
 21
1445.9854814324
 31
0.0
  0
LINE
  5
136
330
1F
100
AcDbEntity
  8
0
  6
Continuous
 62
     7
370
    15
100
AcDbLine
 10
1013.3485957439
 20
1445.9854814324
 30
0.0
 11
1010.8648701961
 21
1444.5143791947
 31
0.0
  0
LINE
  5
137
330
1F
100
AcDbEntity
  8
0
  6
Continuous
 62
     7
370
    15
100
AcDbLine
 10
1010.8648701961
 20
1444.5143791947
 30
0.0
 11
1010.896937495
 21
1441.6278082046
 31
0.0
  0
LINE
  5
138
330
1F
100
AcDbEntity
  8
0
  6
Continuous
 62
     7
370
    15
100
AcDbLine
 10
1010.896937495
 20
1441.6278082046
 30
0.0
 11
1013.4128495509
 21
1440.2123357269
 31
0.0
  0
LINE
  5
139
330
1F
100
AcDbEntity
  8
0
  6
Continuous
 62
     7
370
    15
100
AcDbLine
 10
1013.4128495509
 20
1440.2123357269
 30
0.0
 11
1015.896694308
 21
1441.6834379646
 31
0.0
  0
LINE
  5
13A
330
1F
100
AcDbEntity
  8
0
  6
Continuous
 62
     7
370
    15
100
AcDbLine
 10
1015.896694308
 20
1441.6834379646
 30
0.0
 11
1015.8645077998
 21
1444.5700089547
 31
0.0
  0
CIRCLE
  5
13B
330
1F
100
AcDbEntity
  8
0
  6
Continuous
 62
     7
370
    15
100
AcDbCircle
 10
-13.6192682927
 20
1443.0989082906
 30
0.0
 40
6.449999999999941
  0
CIRCLE
  5
13C
330
1F
100
AcDbEntity
  8
0
  6
Continuous
 62
     7
370
    15
100
AcDbCircle
 10
-13.6192682927
 20
1443.0989082906
 30
0.0
 40
7.44999999999999
  0
LINE
  5
13D
330
1F
100
AcDbEntity
  8
0
  6
Continuous
 62
     7
370
    15
100
AcDbLine
 10
-11.1355022137
 20
1444.5700089547
 30
0.0
 11
-13.6514142697
 21
1445.9854814324
 31
0.0
  0
LINE
  5
13E
330
1F
100
AcDbEntity
  8
0
  6
Continuous
 62
     7
370
    15
100
AcDbLine
 10
-16.1030725186
 20
1441.6278082046
 30
0.0
 11
-13.5871604626
 21
1440.2123357269
 31
0.0
  0
LINE
  5
13F
330
1F
100
AcDbEntity
  8
0
  6
Continuous
 62
     7
370
    15
100
AcDbLine
 10
-11.1033753102
 20
1441.6834379646
 30
0.0
 11
-11.1355022137
 21
1444.5700089547
 31
0.0
  0
LINE
  5
140
330
1F
100
AcDbEntity
  8
0
  6
Continuous
 62
     7
370
    15
100
AcDbLine
 10
-13.5871604626
 20
1440.2123357269
 30
0.0
 11
-11.1033753102
 21
1441.6834379646
 31
0.0
  0
LINE
  5
141
330
1F
100
AcDbEntity
  8
0
  6
Continuous
 62
     7
370
    15
100
AcDbLine
 10
-13.6514142697
 20
1445.9854814324
 30
0.0
 11
-16.1351994221
 21
1444.5143791947
 31
0.0
  0
LINE
  5
142
330
1F
100
AcDbEntity
  8
0
  6
Continuous
 62
     7
370
    15
100
AcDbLine
 10
-16.1351994221
 20
1444.5143791947
 30
0.0
 11
-16.1030725186
 21
1441.6278082046
 31
0.0
  0
CIRCLE
  5
143
330
1F
100
AcDbEntity
  8
0
  6
Continuous
 62
     7
370
    15
100
AcDbCircle
 10
500.3807317073
 20
1443.0989082906
 30
0.0
 40
6.449999999999934
  0
LINE
  5
144
330
1F
100
AcDbEntity
  8
0
  6
Continuous
 62
     7
370
    15
100
AcDbLine
 10
502.8644963558
 20
1444.5700089547
 30
0.0
 11
500.3485842998
 21
1445.9854814324
 31
0.0
  0
LINE
  5
145
330
1F
100
AcDbEntity
  8
0
  6
Continuous
 62
     7
370
    15
100
AcDbLine
 10
500.3485842998
 20
1445.9854814324
 30
0.0
 11
497.864858752
 21
1444.5143791947
 31
0.0
  0
LINE
  5
146
330
1F
100
AcDbEntity
  8
0
  6
Continuous
 62
     7
370
    15
100
AcDbLine
 10
500.4128381069
 20
1440.2123357269
 30
0.0
 11
502.8966828639
 21
1441.6834379646
 31
0.0
  0
LINE
  5
147
330
1F
100
AcDbEntity
  8
0
  6
Continuous
 62
     7
370
    15
100
AcDbLine
 10
497.864858752
 20
1444.5143791947
 30
0.0
 11
497.8969260509
 21
1441.6278082046
 31
0.0
  0
LINE
  5
148
330
1F
100
AcDbEntity
  8
0
  6
Continuous
 62
     7
370
    15
100
AcDbLine
 10
497.8969260509
 20
1441.6278082046
 30
0.0
 11
500.4128381069
 21
1440.2123357269
 31
0.0
  0
LINE
  5
149
330
1F
100
AcDbEntity
  8
0
  6
Continuous
 62
     7
370
    15
100
AcDbLine
 10
502.8966828639
 20
1441.6834379646
 30
0.0
 11
502.8644963558
 21
1444.5700089547
 31
0.0
  0
CIRCLE
  5
14A
330
1F
100
AcDbEntity
  8
0
  6
Continuous
 62
     7
370
    15
100
AcDbCircle
 10
500.3807317073
 20
1443.0989082906
 30
0.0
 40
7.450000000000076
  0
CIRCLE
  5
14B
330
1F
100
AcDbEntity
  8
0
  6
Continuous
 62
     7
370
    15
100
AcDbCircle
 10
-526.6192682927
 20
1443.0989082906
 30
0.0
 40
6.450000000000103
  0
LINE
  5
14C
330
1F
100
AcDbEntity
  8
0
  6
Continuous
 62
     7
370
    15
100
AcDbLine
 10
-526.6513810103
 20
1445.9854814324
 30
0.0
 11
-529.1351661627
 21
1444.5143791947
 31
0.0
  0
LINE
  5
14D
330
1F
100
AcDbEntity
  8
0
  6
Continuous
 62
     7
370
    15
100
AcDbLine
 10
-529.1030541604
 20
1441.6278082046
 30
0.0
 11
-526.5871421044
 21
1440.2123357269
 31
0.0
  0
LINE
  5
14E
330
1F
100
AcDbEntity
  8
0
  6
Continuous
 62
     7
370
    15
100
AcDbLine
 10
-526.5871421044
 20
1440.2123357269
 30
0.0
 11
-524.1033718531
 21
1441.6834379646
 31
0.0
  0
LINE
  5
14F
330
1F
100
AcDbEntity
  8
0
  6
Continuous
 62
     7
370
    15
100
AcDbLine
 10
-524.1354838555
 20
1444.5700089547
 30
0.0
 11
-526.6513810103
 21
1445.9854814324
 31
0.0
  0
LINE
  5
150
330
1F
100
AcDbEntity
  8
0
  6
Continuous
 62
     7
370
    15
100
AcDbLine
 10
-524.1033718531
 20
1441.6834379646
 30
0.0
 11
-524.1354838555
 21
1444.5700089547
 31
0.0
  0
LINE
  5
151
330
1F
100
AcDbEntity
  8
0
  6
Continuous
 62
     7
370
    15
100
AcDbLine
 10
-529.1351661627
 20
1444.5143791947
 30
0.0
 11
-529.1030541604
 21
1441.6278082046
 31
0.0
  0
CIRCLE
  5
152
330
1F
100
AcDbEntity
  8
0
  6
Continuous
 62
     7
370
    15
100
AcDbCircle
 10
-526.6192682927
 20
1443.0989082906
 30
0.0
 40
7.450000000000075
  0
ARC
  5
153
330
1F
100
AcDbEntity
  8
0
  6
Continuous
 62
     7
370
    15
100
AcDbCircle
 10
1013.3807317073
 20
1443.0989082906
 30
0.0
 40
24.00000000000018
100
AcDbArc
 50
31.3881664643
 51
148.6118335357
  0
ARC
  5
154
330
1F
100
AcDbEntity
  8
0
  6
Continuous
 62
     7
370
    15
100
AcDbCircle
 10
1013.3807317073
 20
1443.0989082906
 30
0.0
 40
24.00000000000006
100
AcDbArc
 50
211.3881664643
 51
328.6118335357
  0
ARC
  5
155
330
1F
100
AcDbEntity
  8
0
  6
Continuous
 62
     7
370
    15
100
AcDbCircle
 10
1013.3807317073
 20
1443.0989082906
 30
0.0
 40
24.99999999999999
100
AcDbArc
 50
210.0
 51
330.0
  0
ARC
  5
156
330
1F
100
AcDbEntity
  8
0
  6
Continuous
 62
     7
370
    15
100
AcDbCircle
 10
1013.3807317073
 20
1443.0989082906
 30
0.0
 40
25.0000000000001
100
AcDbArc
 50
30.0
 51
150.0
  0
ARC
  5
157
330
1F
100
AcDbEntity
  8
0
  6
Continuous
 62
     7
370
    15
100
AcDbCircle
 10
-526.6192682927
 20
1443.0989082906
 30
0.0
 40
24.00000000000007
100
AcDbArc
 50
31.3881664643
 51
108.8005444417
  0
ARC
  5
158
330
1F
100
AcDbEntity
  8
0
  6
Continuous
 62
     7
370
    15
100
AcDbCircle
 10
-526.6192682927
 20
1443.0989082906
 30
0.0
 40
24.00000000000017
100
AcDbArc
 50
224.9005279607
 51
328.6118335357
  0
ARC
  5
159
330
1F
100
AcDbEntity
  8
0
  6
Continuous
 62
     7
370
    15
100
AcDbCircle
 10
-526.6192682927
 20
1443.0989082906
 30
0.0
 40
25.00000000000018
100
AcDbArc
 50
227.1563569564
 51
330.0
  0
ARC
  5
15A
330
1F
100
AcDbEntity
  8
0
  6
Continuous
 62
     7
370
    15
100
AcDbCircle
 10
-526.6192682927
 20
1443.0989082906
 30
0.0
 40
25.00000000000005
100
AcDbArc
 50
30.0
 51
106.0973005297
  0
ARC
  5
15B
330
1F
100
AcDbEntity
  8
0
  6
Continuous
 62
     7
370
    15
100
AcDbCircle
 10
500.3807317073
 20
1443.0989082906
 30
0.0
 40
24.00000000000013
100
AcDbArc
 50
31.3881664643
 51
148.6118335357
  0
ARC
  5
15C
330
1F
100
AcDbEntity
  8
0
  6
Continuous
 62
     7
370
    15
100
AcDbCircle
 10
500.3807317073
 20
1443.0989082906
 30
0.0
 40
24.00000000000001
100
AcDbArc
 50
211.3881664643
 51
328.6118335357
  0
ARC
  5
15D
330
1F
100
AcDbEntity
  8
0
  6
Continuous
 62
     7
370
    15
100
AcDbCircle
 10
500.3807317073
 20
1443.0989082906
 30
0.0
 40
24.99999999999994
100
AcDbArc
 50
210.0
 51
330.0
  0
ARC
  5
15E
330
1F
100
AcDbEntity
  8
0
  6
Continuous
 62
     7
370
    15
100
AcDbCircle
 10
500.3807317073
 20
1443.0989082906
 30
0.0
 40
25.00000000000005
100
AcDbArc
 50
30.0
 51
150.0
  0
ARC
  5
15F
330
1F
100
AcDbEntity
  8
0
  6
Continuous
 62
     7
370
    15
100
AcDbCircle
 10
-13.6192682927
 20
1443.0989082906
 30
0.0
 40
24.00000000000012
100
AcDbArc
 50
31.3881664643
 51
148.6118335357
  0
ARC
  5
160
330
1F
100
AcDbEntity
  8
0
  6
Continuous
 62
     7
370
    15
100
AcDbCircle
 10
-13.6192682927
 20
1443.0989082906
 30
0.0
 40
24.0
100
AcDbArc
 50
211.3881664643
 51
328.6118335357
  0
ARC
  5
161
330
1F
100
AcDbEntity
  8
0
  6
Continuous
 62
     7
370
    15
100
AcDbCircle
 10
-13.6192682927
 20
1443.0989082906
 30
0.0
 40
24.99999999999999
100
AcDbArc
 50
210.0
 51
330.0
  0
ARC
  5
162
330
1F
100
AcDbEntity
  8
0
  6
Continuous
 62
     7
370
    15
100
AcDbCircle
 10
-13.6192682927
 20
1443.0989082906
 30
0.0
 40
25.00000000000011
100
AcDbArc
 50
30.0
 51
150.0
  0
LINE
  5
163
330
1F
100
AcDbEntity
  8
0
  6
Continuous
 62
     8
370
    15
100
AcDbLine
 10
170.6568166072
 20
-647.3010440257
 30
0.0
 11
170.6400080974
 21
-651.3009925273
 31
0.0
  0
LINE
  5
164
330
1F
100
AcDbEntity
  8
0
  6
Continuous
 62
     8
370
    15
100
AcDbLine
 10
197.1046491916
 20
-647.3010440257
 30
0.0
 11
197.1214577014
 21
-651.3009925273
 31
0.0
  0
LINE
  5
165
330
1F
100
AcDbEntity
  8
0
  6
Continuous
 62
     7
370
    15
100
AcDbLine
 10
1300.4392961734
 20
-651.3009925273
 30
0.0
 11
1300.160014885
 21
-635.3011985209
 31
0.0
  0
LINE
  5
166
330
1F
100
AcDbEntity
  8
0
  6
Continuous
 62
     7
370
    15
100
AcDbLine
 10
1295.5422381633
 20
-635.3011985209
 30
0.0
 11
1295.2629568749
 21
-651.3009925273
 31
0.0
  0
LINE
  5
167
330
1F
100
AcDbEntity
  8
0
  6
Continuous
 62
     7
370
    15
100
AcDbLine
 10
1313.477177056
 20
1423.0989090267
 30
0.0
 11
1321.4771783673
 21
1423.0989090267
 31
0.0
  0
LINE
  5
168
330
1F
100
AcDbEntity
  8
0
  6
Continuous
 62
     7
370
    15
100
AcDbLine
 10
1321.4771783673
 20
1463.0989099953
 30
0.0
 11
1313.477177056
 21
1463.0989099953
 31
0.0
  0
LINE
  5
169
330
1F
100
AcDbEntity
  8
0
  6
Continuous
 62
     7
370
    15
100
AcDbLine
 10
1282.6771786199
 20
1427.0989078197
 30
0.0
 11
1313.477177056
 21
1427.0989078197
 31
0.0
  0
LINE
  5
16A
330
1F
100
AcDbEntity
  8
0
  6
Continuous
 62
     7
370
    15
100
AcDbLine
 10
1313.477177056
 20
1459.0989093396
 30
0.0
 11
1282.6771786199
 21
1459.0989093396
 31
0.0
  0
LINE
  5
16B
330
1F
100
AcDbEntity
  8
0
  6
Continuous
 62
     7
370
    15
100
AcDbLine
 10
1282.6771786199
 20
1459.0989093396
 30
0.0
 11
1280.877178418
 21
1457.2989086721
 31
0.0
  0
LINE
  5
16C
330
1F
100
AcDbEntity
  8
0
  6
Continuous
 62
     7
370
    15
100
AcDbLine
 10
1280.877178418
 20
1428.8989084873
 30
0.0
 11
1282.6771786199
 21
1427.0989078197
 31
0.0
  0
LINE
  5
16D
330
1F
100
AcDbEntity
  8
0
  6
Continuous
 62
     7
370
    15
100
AcDbLine
 10
1266.3771788352
 20
1435.5989101443
 30
0.0
 11
1280.877178418
 21
1435.5989101443
 31
0.0
  0
LINE
  5
16E
330
1F
100
AcDbEntity
  8
0
  6
Continuous
 62
     7
370
    15
100
AcDbLine
 10
1280.877178418
 20
1450.598907015
 30
0.0
 11
1266.3771788352
 21
1450.598907015
 31
0.0
  0
LINE
  5
16F
330
1F
100
AcDbEntity
  8
0
  6
Continuous
 62
     7
370
    15
100
AcDbLine
 10
1314.051128807
 20
1466.6989113304
 30
0.0
 11
1317.6511264168
 21
1466.6989113304
 31
0.0
  0
LINE
  5
170
330
1F
100
AcDbEntity
  8
0
  6
Continuous
 62
     7
370
    15
100
AcDbLine
 10
1317.6511264168
 20
1496.6989050719
 30
0.0
 11
1314.051128807
 21
1496.6989050719
 31
0.0
  0
LINE
  5
171
330
1F
100
AcDbEntity
  8
0
  6
Continuous
 62
     7
370
    15
100
AcDbLine
 10
1314.051128807
 20
1496.6989050719
 30
0.0
 11
1313.8511254214
 21
1496.498909137
 31
0.0
  0
LINE
  5
172
330
1F
100
AcDbEntity
  8
0
  6
Continuous
 62
     7
370
    15
100
AcDbLine
 10
1313.8511254214
 20
1466.8989072654
 30
0.0
 11
1314.051128807
 21
1466.6989113304
 31
0.0
  0
LINE
  5
173
330
1F
100
AcDbEntity
  8
0
  6
Continuous
 62
     7
370
    15
100
AcDbLine
 10
1317.6511264168
 20
1466.6989113304
 30
0.0
 11
1317.8511260771
 21
1466.8989072654
 31
0.0
  0
LINE
  5
174
330
1F
100
AcDbEntity
  8
0
  6
Continuous
 62
     7
370
    15
100
AcDbLine
 10
1317.8511260771
 20
1496.498909137
 30
0.0
 11
1317.6511264168
 21
1496.6989050719
 31
0.0
  0
ARC
  5
175
330
1F
100
AcDbEntity
  8
0
  6
Continuous
 62
     7
370
    15
100
AcDbCircle
 10
1275.9339696836
 20
1277.8989082906
 30
0.0
 40
0.2000000000000455
100
AcDbArc
 50
225.0
 51
270.0
  0
ARC
  5
176
330
1F
100
AcDbEntity
  8
0
  6
Continuous
 62
     7
370
    15
100
AcDbCircle
 10
1275.9339696836
 20
1307.4989082906
 30
0.0
 40
0.1999999999998181
100
AcDbArc
 50
90.0
 51
135.0
  0
ARC
  5
177
330
1F
100
AcDbEntity
  8
0
  6
Continuous
 62
     7
370
    15
100
AcDbCircle
 10
1277.6511269712
 20
1307.4989082906
 30
0.0
 40
0.1999999999998181
100
AcDbArc
 50
0.0
 51
90.0
  0
ARC
  5
178
330
1F
100
AcDbEntity
  8
0
  6
Continuous
 62
     7
370
    15
100
AcDbCircle
 10
1277.6511269712
 20
1277.8989082906
 30
0.0
 40
0.2000000000000455
100
AcDbArc
 50
270.0
 51
0.0
  0
LINE
  5
179
330
1F
100
AcDbEntity
  8
0
  6
Continuous
 62
     7
370
    15
100
AcDbLine
 10
1275.933969649
 20
1277.6989082906
 30
0.0
 11
1277.6511269762
 21
1277.6989082906
 31
0.0
  0
LINE
  5
17A
330
1F
100
AcDbEntity
  8
0
  6
Continuous
 62
     7
370
    15
100
AcDbLine
 10
1277.6511269762
 20
1307.6989094827
 30
0.0
 11
1275.933969649
 21
1307.6989094827
 31
0.0
  0
LINE
  5
17B
330
1F
100
AcDbEntity
  8
0
  6
Continuous
 62
     7
370
    15
100
AcDbLine
 10
1275.792548316
 20
1307.640333018
 30
0.0
 11
1273.9097055741
 21
1305.7574893448
 31
0.0
  0
LINE
  5
17C
330
1F
100
AcDbEntity
  8
0
  6
Continuous
 62
     7
370
    15
100
AcDbLine
 10
1273.9097055741
 20
1279.6403284285
 30
0.0
 11
1275.792548316
 21
1277.7574847552
 31
0.0
  0
ARC
  5
17D
330
1F
100
AcDbEntity
  8
0
  6
Continuous
 62
     7
370
    15
100
AcDbCircle
 10
1274.0511269712
 20
1305.6160655781
 30
0.0
 40
0.2000000000002728
100
AcDbArc
 50
135.0
 51
180.0
  0
ARC
  5
17E
330
1F
100
AcDbEntity
  8
0
  6
Continuous
 62
     7
370
    15
100
AcDbCircle
 10
1274.0511269712
 20
1279.7817510031
 30
0.0
 40
0.2000000000002728
100
AcDbArc
 50
180.0
 51
225.0
  0
ARC
  5
17F
330
1F
100
AcDbEntity
  8
0
  6
Continuous
 62
     7
370
    15
100
AcDbCircle
 10
1275.9339696836
 20
1332.8989082906
 30
0.0
 40
0.2000000000001302
100
AcDbArc
 50
225.0
 51
270.0
  0
ARC
  5
180
330
1F
100
AcDbEntity
  8
0
  6
Continuous
 62
     7
370
    15
100
AcDbCircle
 10
1275.9339696836
 20
1362.4989082906
 30
0.0
 40
0.2000000000000455
100
AcDbArc
 50
90.0
 51
135.0
  0
LINE
  5
181
330
1F
100
AcDbEntity
  8
0
  6
Continuous
 62
     7
370
    15
100
AcDbLine
 10
1275.933969649
 20
1332.6989079926
 30
0.0
 11
1277.6511269762
 21
1332.6989079926
 31
0.0
  0
LINE
  5
182
330
1F
100
AcDbEntity
  8
0
  6
Continuous
 62
     7
370
    15
100
AcDbLine
 10
1277.6511269762
 20
1362.6989091847
 30
0.0
 11
1275.933969649
 21
1362.6989091847
 31
0.0
  0
ARC
  5
183
330
1F
100
AcDbEntity
  8
0
  6
Continuous
 62
     7
370
    15
100
AcDbCircle
 10
1277.6511269712
 20
1362.4989082906
 30
0.0
 40
0.2000000000000455
100
AcDbArc
 50
0.0
 51
90.0
  0
ARC
  5
184
330
1F
100
AcDbEntity
  8
0
  6
Continuous
 62
     7
370
    15
100
AcDbCircle
 10
1277.6511269712
 20
1332.8989082906
 30
0.0
 40
0.2000000000000455
100
AcDbArc
 50
270.0
 51
0.0
  0
LINE
  5
185
330
1F
100
AcDbEntity
  8
0
  6
Continuous
 62
     7
370
    15
100
AcDbLine
 10
1275.792548316
 20
1362.6403289947
 30
0.0
 11
1273.9097055741
 21
1360.7574853215
 31
0.0
  0
LINE
  5
186
330
1F
100
AcDbEntity
  8
0
  6
Continuous
 62
     7
370
    15
100
AcDbLine
 10
1273.9097055741
 20
1334.6403281304
 30
0.0
 11
1275.792548316
 21
1332.7574844572
 31
0.0
  0
ARC
  5
187
330
1F
100
AcDbEntity
  8
0
  6
Continuous
 62
     7
370
    15
100
AcDbCircle
 10
1274.0511269712
 20
1360.6160655781
 30
0.0
 40
0.2000000000002728
100
AcDbArc
 50
135.0
 51
180.0
  0
ARC
  5
188
330
1F
100
AcDbEntity
  8
0
  6
Continuous
 62
     7
370
    15
100
AcDbCircle
 10
1274.0511269712
 20
1334.7817510031
 30
0.0
 40
0.2000000000002728
100
AcDbArc
 50
180.0
 51
225.0
  0
LINE
  5
189
330
1F
100
AcDbEntity
  8
0
  6
Continuous
 62
     7
370
    15
100
AcDbLine
 10
1323.3943356895
 20
1458.0989073131
 30
0.0
 11
1321.6771780275
 21
1458.0989073131
 31
0.0
  0
LINE
  5
18A
330
1F
100
AcDbEntity
  8
0
  6
Continuous
 62
     7
370
    15
100
AcDbLine
 10
1321.6771780275
 20
1428.0989079836
 30
0.0
 11
1323.3943356895
 21
1428.0989079836
 31
0.0
  0
ARC
  5
18B
330
1F
100
AcDbEntity
  8
0
  6
Continuous
 62
     7
370
    15
100
AcDbCircle
 10
1321.6771783944
 20
1428.2989082906
 30
0.0
 40
0.2000000000000455
100
AcDbArc
 50
180.0
 51
270.0
  0
ARC
  5
18C
330
1F
100
AcDbEntity
  8
0
  6
Continuous
 62
     7
370
    15
100
AcDbCircle
 10
1321.6771783944
 20
1457.8989082906
 30
0.0
 40
0.2000000000000455
100
AcDbArc
 50
90.0
 51
180.0
  0
ARC
  5
18D
330
1F
100
AcDbEntity
  8
0
  6
Continuous
 62
     7
370
    15
100
AcDbCircle
 10
1323.3943356819
 20
1457.8989082906
 30
0.0
 40
0.2000000000001302
100
AcDbArc
 50
45.0
 51
90.0
  0
ARC
  5
18E
330
1F
100
AcDbEntity
  8
0
  6
Continuous
 62
     7
370
    15
100
AcDbCircle
 10
1323.3943356819
 20
1428.2989082906
 30
0.0
 40
0.2000000000001302
100
AcDbArc
 50
270.0
 51
315.0
  0
LINE
  5
18F
330
1F
100
AcDbEntity
  8
0
  6
Continuous
 62
     7
370
    15
100
AcDbLine
 10
1323.5357588851
 20
1428.1574863109
 30
0.0
 11
1325.418598833
 21
1430.0403299841
 31
0.0
  0
LINE
  5
190
330
1F
100
AcDbEntity
  8
0
  6
Continuous
 62
     7
370
    15
100
AcDbLine
 10
1325.418598833
 20
1456.1574871752
 30
0.0
 11
1323.5357588851
 21
1458.0403308484
 31
0.0
  0
ARC
  5
191
330
1F
100
AcDbEntity
  8
0
  6
Continuous
 62
     7
370
    15
100
AcDbCircle
 10
1325.2771783944
 20
1430.1817510031
 30
0.0
 40
0.2000000000000455
100
AcDbArc
 50
315.0
 51
0.0
  0
ARC
  5
192
330
1F
100
AcDbEntity
  8
0
  6
Continuous
 62
     7
370
    15
100
AcDbCircle
 10
1325.2771783944
 20
1456.0160655781
 30
0.0
 40
0.2000000000000455
100
AcDbArc
 50
0.0
 51
45.0
  0
LINE
  5
193
330
1F
100
AcDbEntity
  8
0
  6
Continuous
 62
     7
370
    15
100
AcDbLine
 10
1326.8511256897
 20
1307.6989094827
 30
0.0
 11
1323.8511270606
 21
1307.6989094827
 31
0.0
  0
LINE
  5
194
330
1F
100
AcDbEntity
  8
0
  6
Continuous
 62
     7
370
    15
100
AcDbLine
 10
1323.8511270606
 20
1277.6989082906
 30
0.0
 11
1326.8511256897
 21
1277.6989082906
 31
0.0
  0
LINE
  5
195
330
1F
100
AcDbEntity
  8
0
  6
Continuous
 62
     7
370
    15
100
AcDbLine
 10
1326.8511256897
 20
1277.6989082906
 30
0.0
 11
1328.8511260175
 21
1279.6989048931
 31
0.0
  0
LINE
  5
196
330
1F
100
AcDbEntity
  8
0
  6
Continuous
 62
     7
370
    15
100
AcDbLine
 10
1328.8511260175
 20
1305.6989054296
 30
0.0
 11
1326.8511256897
 21
1307.6989094827
 31
0.0
  0
LINE
  5
197
330
1F
100
AcDbEntity
  8
0
  6
Continuous
 62
     7
370
    15
100
AcDbLine
 10
1326.8511256897
 20
1362.6989091847
 30
0.0
 11
1323.8511270606
 21
1362.6989091847
 31
0.0
  0
LINE
  5
198
330
1F
100
AcDbEntity
  8
0
  6
Continuous
 62
     7
370
    15
100
AcDbLine
 10
1323.8511270606
 20
1332.6989079926
 30
0.0
 11
1326.8511256897
 21
1332.6989079926
 31
0.0
  0
LINE
  5
199
330
1F
100
AcDbEntity
  8
0
  6
Continuous
 62
     7
370
    15
100
AcDbLine
 10
1326.8511256897
 20
1332.6989079926
 30
0.0
 11
1328.8511260175
 21
1334.6989045951
 31
0.0
  0
LINE
  5
19A
330
1F
100
AcDbEntity
  8
0
  6
Continuous
 62
     7
370
    15
100
AcDbLine
 10
1328.8511260175
 20
1360.6989088568
 30
0.0
 11
1326.8511256897
 21
1362.6989091847
 31
0.0
  0
LINE
  5
19B
330
1F
100
AcDbEntity
  8
0
  6
Continuous
 62
     7
370
    15
100
AcDbLine
 10
1326.8511256897
 20
1406.6989084806
 30
0.0
 11
1328.8511260175
 21
1408.6989083427
 31
0.0
  0
LINE
  5
19C
330
1F
100
AcDbEntity
  8
0
  6
Continuous
 62
     7
370
    15
100
AcDbLine
 10
1328.8511260175
 20
1434.6989098105
 30
0.0
 11
1326.8511256897
 21
1436.6989101383
 31
0.0
  0
LINE
  5
19D
330
1F
100
AcDbEntity
  8
0
  6
Continuous
 62
     7
370
    15
100
AcDbLine
 10
1326.8511256897
 20
1436.6989101383
 30
0.0
 11
1325.4771790229
 21
1436.6989101383
 31
0.0
  0
LINE
  5
19E
330
1F
100
AcDbEntity
  8
0
  6
Continuous
 62
     7
370
    15
100
AcDbLine
 10
1323.8511270606
 20
1406.6989084806
 30
0.0
 11
1326.8511256897
 21
1406.6989084806
 31
0.0
  0
LINE
  5
19F
330
1F
100
AcDbEntity
  8
0
  6
Continuous
 62
     7
370
    15
100
AcDbLine
 10
1326.8511256897
 20
1466.6989113304
 30
0.0
 11
1328.8511260175
 21
1468.698907933
 31
0.0
  0
LINE
  5
1A0
330
1F
100
AcDbEntity
  8
0
  6
Continuous
 62
     7
370
    15
100
AcDbLine
 10
1328.8511260175
 20
1494.6989084694
 30
0.0
 11
1326.8511256897
 21
1496.6989050719
 31
0.0
  0
LINE
  5
1A1
330
1F
100
AcDbEntity
  8
0
  6
Continuous
 62
     7
370
    15
100
AcDbLine
 10
1326.8511256897
 20
1496.6989050719
 30
0.0
 11
1323.8511270606
 21
1496.6989050719
 31
0.0
  0
LINE
  5
1A2
330
1F
100
AcDbEntity
  8
0
  6
Continuous
 62
     7
370
    15
100
AcDbLine
 10
1323.8511270606
 20
1466.6989113304
 30
0.0
 11
1326.8511256897
 21
1466.6989113304
 31
0.0
  0
LINE
  5
1A3
330
1F
100
AcDbEntity
  8
0
  6
Continuous
 62
     7
370
    15
100
AcDbLine
 10
1288.8511269116
 20
1414.6989083949
 30
0.0
 11
1289.8511270755
 21
1413.698908231
 31
0.0
  0
LINE
  5
1A4
330
1F
100
AcDbEntity
  8
0
  6
Continuous
 62
     7
370
    15
100
AcDbLine
 10
1289.8511270755
 20
1413.698908231
 30
0.0
 11
1317.6511264168
 21
1413.698908231
 31
0.0
  0
LINE
  5
1A5
330
1F
100
AcDbEntity
  8
0
  6
Continuous
 62
     7
370
    15
100
AcDbLine
 10
1317.6511264168
 20
1413.698908231
 30
0.0
 11
1317.8511260771
 21
1413.8989078912
 31
0.0
  0
LINE
  5
1A6
330
1F
100
AcDbEntity
  8
0
  6
Continuous
 62
     7
370
    15
100
AcDbLine
 10
1284.9339697272
 20
1466.6989113304
 30
0.0
 11
1285.6511267596
 21
1466.6989113304
 31
0.0
  0
LINE
  5
1A7
330
1F
100
AcDbEntity
  8
0
  6
Continuous
 62
     7
370
    15
100
AcDbLine
 10
1285.6511267596
 20
1496.6989050719
 30
0.0
 11
1284.9339697272
 21
1496.6989050719
 31
0.0
  0
ARC
  5
1A8
330
1F
100
AcDbEntity
  8
0
  6
Continuous
 62
     7
370
    15
100
AcDbCircle
 10
1284.9339696836
 20
1466.8989082906
 30
0.0
 40
0.2000000000002728
100
AcDbArc
 50
225.0
 51
270.0
  0
ARC
  5
1A9
330
1F
100
AcDbEntity
  8
0
  6
Continuous
 62
     7
370
    15
100
AcDbCircle
 10
1284.9339696836
 20
1496.4989082906
 30
0.0
 40
0.2000000000000455
100
AcDbArc
 50
90.0
 51
135.0
  0
ARC
  5
1AA
330
1F
100
AcDbEntity
  8
0
  6
Continuous
 62
     7
370
    15
100
AcDbCircle
 10
1285.6511269712
 20
1496.4989082906
 30
0.0
 40
0.2000000000000455
100
AcDbArc
 50
0.0
 51
90.0
  0
ARC
  5
1AB
330
1F
100
AcDbEntity
  8
0
  6
Continuous
 62
     7
370
    15
100
AcDbCircle
 10
1285.6511269712
 20
1466.8989082906
 30
0.0
 40
0.2000000000002728
100
AcDbArc
 50
270.0
 51
0.0
  0
LINE
  5
1AC
330
1F
100
AcDbEntity
  8
0
  6
Continuous
 62
     7
370
    15
100
AcDbLine
 10
1284.7925483943
 20
1496.6403286073
 30
0.0
 11
1282.9097056524
 21
1494.757484934
 31
0.0
  0
LINE
  5
1AD
330
1F
100
AcDbEntity
  8
0
  6
Continuous
 62
     7
370
    15
100
AcDbLine
 10
1282.9097056524
 20
1468.6403314683
 30
0.0
 11
1284.7925483943
 21
1466.7574877951
 31
0.0
  0
ARC
  5
1AE
330
1F
100
AcDbEntity
  8
0
  6
Continuous
 62
     7
370
    15
100
AcDbCircle
 10
1283.0511269712
 20
1494.6160655781
 30
0.0
 40
0.200000000000291
100
AcDbArc
 50
135.0
 51
180.0
  0
ARC
  5
1AF
330
1F
100
AcDbEntity
  8
0
  6
Continuous
 62
     7
370
    15
100
AcDbCircle
 10
1283.0511269712
 20
1468.7817510031
 30
0.0
 40
0.200000000000291
100
AcDbArc
 50
180.0
 51
225.0
  0
LINE
  5
1B0
330
1F
100
AcDbEntity
  8
0
  6
Continuous
 62
     7
370
    15
100
AcDbLine
 10
1286.3511274331
 20
1491.4489056084
 30
0.0
 11
1285.8511273511
 21
1491.4489056084
 31
0.0
  0
LINE
  5
1B1
330
1F
100
AcDbEntity
  8
0
  6
Continuous
 62
     7
370
    15
100
AcDbLine
 10
1285.8511273511
 20
1471.948910794
 30
0.0
 11
1286.3511274331
 21
1471.948910794
 31
0.0
  0
LINE
  5
1B2
330
1F
100
AcDbEntity
  8
0
  6
Continuous
 62
     7
370
    15
100
AcDbLine
 10
1287.8511267476
 20
1510.698911092
 30
0.0
 11
1286.3511274331
 21
1510.698911092
 31
0.0
  0
LINE
  5
1B3
330
1F
100
AcDbEntity
  8
0
  6
Continuous
 62
     7
370
    15
100
AcDbLine
 10
1307.35112715
 20
1510.698911092
 30
0.0
 11
1305.8511278354
 21
1510.698911092
 31
0.0
  0
LINE
  5
1B4
330
1F
100
AcDbEntity
  8
0
  6
Continuous
 62
     7
370
    15
100
AcDbLine
 10
1288.8715554722
 20
1510.698911092
 30
0.0
 11
1287.8511267476
 21
1510.698911092
 31
0.0
  0
ARC
  5
1B5
330
1F
100
AcDbEntity
  8
0
  6
Continuous
 62
     7
370
    15
100
AcDbCircle
 10
1296.8771783944
 20
1520.2989082906
 30
0.0
 40
12.49999999999988
100
AcDbArc
 50
230.1746287392
 51
309.8253712608
  0
LINE
  5
1B6
330
1F
100
AcDbEntity
  8
0
  6
Continuous
 62
     7
370
    15
100
AcDbLine
 10
1305.8511278354
 20
1510.698911092
 30
0.0
 11
1304.8828019523
 21
1510.698911092
 31
0.0
  0
LINE
  5
1B7
330
1F
100
AcDbEntity
  8
0
  6
Continuous
 62
     7
370
    15
100
AcDbLine
 10
1322.5011265599
 20
1277.6989082906
 30
0.0
 11
1323.8511270606
 21
1277.6989082906
 31
0.0
  0
LINE
  5
1B8
330
1F
100
AcDbEntity
  8
0
  6
Continuous
 62
     7
370
    15
100
AcDbLine
 10
1317.8511260771
 20
1277.6989082906
 30
0.0
 11
1319.2217497849
 21
1277.6989082906
 31
0.0
  0
LINE
  5
1B9
330
1F
100
AcDbEntity
  8
0
  6
Continuous
 62
     7
370
    15
100
AcDbLine
 10
1323.8511270606
 20
1496.6989050719
 30
0.0
 11
1317.8511260771
 21
1496.6989050719
 31
0.0
  0
LINE
  5
1BA
330
1F
100
AcDbEntity
  8
0
  6
Continuous
 62
     7
370
    15
100
AcDbLine
 10
1308.1511276536
 20
1496.6989050719
 30
0.0
 11
1307.8511263006
 21
1496.3989074442
 31
0.0
  0
LINE
  5
1BB
330
1F
100
AcDbEntity
  8
0
  6
Continuous
 62
     7
370
    15
100
AcDbLine
 10
1307.8511263006
 20
1466.9989089582
 30
0.0
 11
1308.1511276536
 21
1466.6989113304
 31
0.0
  0
LINE
  5
1BC
330
1F
100
AcDbEntity
  8
0
  6
Continuous
 62
     7
370
    15
100
AcDbLine
 10
1313.5511277937
 20
1496.6989050719
 30
0.0
 11
1308.1511276536
 21
1496.6989050719
 31
0.0
  0
LINE
  5
1BD
330
1F
100
AcDbEntity
  8
0
  6
Continuous
 62
     7
370
    15
100
AcDbLine
 10
1308.1511276536
 20
1466.6989113304
 30
0.0
 11
1313.5511277937
 21
1466.6989113304
 31
0.0
  0
LINE
  5
1BE
330
1F
100
AcDbEntity
  8
0
  6
Continuous
 62
     7
370
    15
100
AcDbLine
 10
1313.5511277937
 20
1466.6989113304
 30
0.0
 11
1313.8511254214
 21
1466.9989089582
 31
0.0
  0
LINE
  5
1BF
330
1F
100
AcDbEntity
  8
0
  6
Continuous
 62
     7
370
    15
100
AcDbLine
 10
1313.8511254214
 20
1496.3989074442
 30
0.0
 11
1313.5511277937
 21
1496.6989050719
 31
0.0
  0
LINE
  5
1C0
330
1F
100
AcDbEntity
  8
0
  6
Continuous
 62
     7
370
    15
100
AcDbLine
 10
1307.8511263006
 20
1491.4489056084
 30
0.0
 11
1307.35112715
 21
1491.4489056084
 31
0.0
  0
LINE
  5
1C1
330
1F
100
AcDbEntity
  8
0
  6
Continuous
 62
     7
370
    15
100
AcDbLine
 10
1307.35112715
 20
1471.948910794
 30
0.0
 11
1307.8511263006
 21
1471.948910794
 31
0.0
  0
LINE
  5
1C2
330
1F
100
AcDbEntity
  8
0
  6
Continuous
 62
     7
370
    15
100
AcDbLine
 10
1263.3771783434
 20
1418.0989082071
 30
0.0
 11
1265.3771786713
 21
1418.0989082071
 31
0.0
  0
LINE
  5
1C3
330
1F
100
AcDbEntity
  8
0
  6
Continuous
 62
     7
370
    15
100
AcDbLine
 10
1265.3771786713
 20
1468.0989052269
 30
0.0
 11
1263.3771783434
 21
1468.0989052269
 31
0.0
  0
LINE
  5
1C4
330
1F
100
AcDbEntity
  8
0
  6
Continuous
 62
     7
370
    15
100
AcDbLine
 10
1265.3771786713
 20
1418.0989082071
 30
0.0
 11
1266.3771788352
 21
1419.098908371
 31
0.0
  0
LINE
  5
1C5
330
1F
100
AcDbEntity
  8
0
  6
Continuous
 62
     7
370
    15
100
AcDbLine
 10
1266.3771788352
 20
1467.0989106509
 30
0.0
 11
1265.3771786713
 21
1468.0989052269
 31
0.0
  0
LINE
  5
1C6
330
1F
100
AcDbEntity
  8
0
  6
Continuous
 62
     7
370
    15
100
AcDbLine
 10
1311.8511288189
 20
-651.3009925273
 30
0.0
 11
1311.8511288189
 21
-655.3011794475
 31
0.0
  0
LINE
  5
1C7
330
1F
100
AcDbEntity
  8
0
  6
Continuous
 62
     7
370
    15
100
AcDbLine
 10
1283.8511270233
 20
-655.3011794475
 30
0.0
 11
1311.8511288189
 21
-655.3011794475
 31
0.0
  0
LINE
  5
1C8
330
1F
100
AcDbEntity
  8
0
  6
Continuous
 62
     7
370
    15
100
AcDbLine
 10
1283.8511270233
 20
-651.3009925273
 30
0.0
 11
1283.8511270233
 21
-655.3011794475
 31
0.0
  0
LINE
  5
1C9
330
1F
100
AcDbEntity
  8
0
  6
Continuous
 62
     7
370
    15
100
AcDbLine
 10
1283.8511270233
 20
-651.3009925273
 30
0.0
 11
1311.8511288189
 21
-651.3009925273
 31
0.0
  0
LINE
  5
1CA
330
1F
100
AcDbEntity
  8
0
  6
Continuous
 62
     7
370
    15
100
AcDbLine
 10
1297.1516045504
 20
-635.3011985209
 30
0.0
 11
1296.8805375271
 21
-651.3009925273
 31
0.0
  0
LINE
  5
1CB
330
1F
100
AcDbEntity
  8
0
  6
Continuous
 62
     7
370
    15
100
AcDbLine
 10
1297.1516045504
 20
-635.3011985209
 30
0.0
 11
1298.5506484979
 21
-635.3011985209
 31
0.0
  0
LINE
  5
1CC
330
1F
100
AcDbEntity
  8
0
  6
Continuous
 62
     7
370
    15
100
AcDbLine
 10
1298.5506484979
 20
-635.3011985209
 30
0.0
 11
1298.8217155211
 21
-651.3009925273
 31
0.0
  0
LINE
  5
1CD
330
1F
100
AcDbEntity
  8
0
  6
Continuous
 62
     7
370
    15
100
AcDbLine
 10
1298.5506484979
 20
-635.3011985209
 30
0.0
 11
1300.160014885
 21
-635.3011985209
 31
0.0
  0
LINE
  5
1CE
330
1F
100
AcDbEntity
  8
0
  6
Continuous
 62
     7
370
    15
100
AcDbLine
 10
1295.5422381633
 20
-635.3011985209
 30
0.0
 11
1297.1516045504
 21
-635.3011985209
 31
0.0
  0
LINE
  5
1CF
330
1F
100
AcDbEntity
  8
0
  6
Continuous
 62
     7
370
    15
100
AcDbLine
 10
1321.4771783673
 20
1463.0989099953
 30
0.0
 11
1321.4771783673
 21
1423.0989090267
 31
0.0
  0
LINE
  5
1D0
330
1F
100
AcDbEntity
  8
0
  6
Continuous
 62
     7
370
    15
100
AcDbLine
 10
1313.477177056
 20
1463.0989099953
 30
0.0
 11
1313.477177056
 21
1423.0989090267
 31
0.0
  0
LINE
  5
1D1
330
1F
100
AcDbEntity
  8
0
  6
Continuous
 62
     7
370
    15
100
AcDbLine
 10
1284.2771782302
 20
1443.098906717
 30
0.0
 11
1284.4827090152
 21
1444.5190954122
 31
0.0
  0
SPLINE
  5
1D2
330
1F
100
AcDbEntity
  8
0
  6
Continuous
 62
     7
370
    15
100
AcDbSpline
210
0.0
220
0.0
230
1.0
 70
     8
 71
     3
 72
     9
 73
     5
 74
     0
 42
0.00000001
 43
0.00000001
 40
0.0
 40
0.0
 40
0.0
 40
0.0
 40
0.5772355642147848
 40
1.0
 40
1.0
 40
1.0
 40
1.0
 10
1309.348538401039
 20
1443.234544536786
 30
0.0
 10
1309.398215704573
 20
1442.588739777767
 30
0.0
 10
1309.484276416374
 20
1441.46995084816
 30
0.0
 10
1309.133897413315
 20
1440.444670533387
 30
0.0
 10
1308.985769631775
 20
1440.01121847959
 30
0.0
  0
SPLINE
  5
1D3
330
1F
100
AcDbEntity
  8
0
  6
Continuous
 62
     7
370
    15
100
AcDbSpline
210
0.0
220
0.0
230
1.0
 70
     8
 71
     3
 72
     9
 73
     5
 74
     0
 42
0.00000001
 43
0.00000001
 40
0.0
 40
0.0
 40
0.0
 40
0.0
 40
0.4159477433799397
 40
1.0
 40
1.0
 40
1.0
 40
1.0
 10
1284.648654399874
 20
1440.516557833867
 30
0.0
 10
1284.541763396281
 20
1440.860353305425
 30
0.0
 10
1284.28478158716
 20
1441.686888554213
 30
0.0
 10
1284.27998164642
 20
1442.578284754626
 30
0.0
 10
1284.277178230198
 20
1443.098906717019
 30
0.0
  0
LINE
  5
1D4
330
1F
100
AcDbEntity
  8
0
  6
Continuous
 62
     7
370
    15
100
AcDbLine
 10
1282.6771786199
 20
1459.0989093396
 30
0.0
 11
1282.6771786199
 21
1427.0989078197
 31
0.0
  0
LINE
  5
1D5
330
1F
100
AcDbEntity
  8
0
  6
Continuous
 62
     7
370
    15
100
AcDbLine
 10
1280.877178418
 20
1428.8989084873
 30
0.0
 11
1280.877178418
 21
1457.2989086721
 31
0.0
  0
CIRCLE
  5
1D6
330
1F
100
AcDbEntity
  8
0
  6
Continuous
 62
     7
370
    15
100
AcDbCircle
 10
1296.8771783944
 20
1443.0989082906
 30
0.0
 40
12.49999999999994
  0
CIRCLE
  5
1D7
330
1F
100
AcDbEntity
  8
0
  6
Continuous
 62
     7
370
    15
100
AcDbCircle
 10
1296.8771783944
 20
1443.0989082906
 30
0.0
 40
12.29999999999989
  0
LINE
  5
1D8
330
1F
100
AcDbEntity
  8
0
  6
Continuous
 62
     7
370
    15
100
AcDbLine
 10
1317.6511264168
 20
1469.1766093585
 30
0.0
 11
1317.6511264168
 21
1496.6989050719
 31
0.0
  0
LINE
  5
1D9
330
1F
100
AcDbEntity
  8
0
  6
Continuous
 62
     7
370
    15
100
AcDbLine
 10
1317.6511264168
 20
1466.6989113304
 30
0.0
 11
1317.6511264168
 21
1469.1766093585
 31
0.0
  0
LINE
  5
1DA
330
1F
100
AcDbEntity
  8
0
  6
Continuous
 62
     7
370
    15
100
AcDbLine
 10
1314.051128807
 20
1469.1766093585
 30
0.0
 11
1314.051128807
 21
1466.6989113304
 31
0.0
  0
LINE
  5
1DB
330
1F
100
AcDbEntity
  8
0
  6
Continuous
 62
     7
370
    15
100
AcDbLine
 10
1314.051128807
 20
1496.6989050719
 30
0.0
 11
1314.051128807
 21
1469.1766093585
 31
0.0
  0
LINE
  5
1DC
330
1F
100
AcDbEntity
  8
0
  6
Continuous
 62
     7
370
    15
100
AcDbLine
 10
1313.8511254214
 20
1469.3435768697
 30
0.0
 11
1313.8511254214
 21
1496.498909137
 31
0.0
  0
LINE
  5
1DD
330
1F
100
AcDbEntity
  8
0
  6
Continuous
 62
     7
370
    15
100
AcDbLine
 10
1313.8511254214
 20
1466.8989072654
 30
0.0
 11
1313.8511254214
 21
1469.3435768697
 31
0.0
  0
LINE
  5
1DE
330
1F
100
AcDbEntity
  8
0
  6
Continuous
 62
     7
370
    15
100
AcDbLine
 10
1273.8511267812
 20
1282.9172427866
 30
0.0
 11
1273.8511267812
 21
1305.6160624239
 31
0.0
  0
LINE
  5
1DF
330
1F
100
AcDbEntity
  8
0
  6
Continuous
 62
     7
370
    15
100
AcDbLine
 10
1273.8511267812
 20
1279.7817478988
 30
0.0
 11
1273.8511267812
 21
1282.9172427866
 31
0.0
  0
LINE
  5
1E0
330
1F
100
AcDbEntity
  8
0
  6
Continuous
 62
     7
370
    15
100
AcDbLine
 10
1273.8511267812
 20
1334.7817476008
 30
0.0
 11
1273.8511267812
 21
1360.6160658512
 31
0.0
  0
LINE
  5
1E1
330
1F
100
AcDbEntity
  8
0
  6
Continuous
 62
     7
370
    15
100
AcDbLine
 10
1325.4771790229
 20
1438.1510022196
 30
0.0
 11
1325.4771790229
 21
1430.1817513171
 31
0.0
  0
LINE
  5
1E2
330
1F
100
AcDbEntity
  8
0
  6
Continuous
 62
     7
370
    15
100
AcDbLine
 10
1325.4771790229
 20
1456.0160639796
 30
0.0
 11
1325.4771790229
 21
1438.1510022196
 31
0.0
  0
LINE
  5
1E3
330
1F
100
AcDbEntity
  8
0
  6
Continuous
 62
     7
370
    15
100
AcDbLine
 10
1323.8511270606
 20
1292.0191626164
 30
0.0
 11
1323.8511270606
 21
1292.6989088866
 31
0.0
  0
LINE
  5
1E4
330
1F
100
AcDbEntity
  8
0
  6
Continuous
 62
     7
370
    15
100
AcDbLine
 10
1323.8511270606
 20
1277.6989082906
 30
0.0
 11
1323.8511270606
 21
1292.0191626164
 31
0.0
  0
LINE
  5
1E5
330
1F
100
AcDbEntity
  8
0
  6
Continuous
 62
     7
370
    15
100
AcDbLine
 10
1326.8511256897
 20
1292.0191626164
 30
0.0
 11
1326.8511256897
 21
1307.6989094827
 31
0.0
  0
LINE
  5
1E6
330
1F
100
AcDbEntity
  8
0
  6
Continuous
 62
     7
370
    15
100
AcDbLine
 10
1326.8511256897
 20
1277.6989082906
 30
0.0
 11
1326.8511256897
 21
1292.0191626164
 31
0.0
  0
LINE
  5
1E7
330
1F
100
AcDbEntity
  8
0
  6
Continuous
 62
     7
370
    15
100
AcDbLine
 10
1328.8511260175
 20
1292.1097989294
 30
0.0
 11
1328.8511260175
 21
1279.6989048931
 31
0.0
  0
LINE
  5
1E8
330
1F
100
AcDbEntity
  8
0
  6
Continuous
 62
     7
370
    15
100
AcDbLine
 10
1328.8511260175
 20
1305.6989054296
 30
0.0
 11
1328.8511260175
 21
1292.1097989294
 31
0.0
  0
LINE
  5
1E9
330
1F
100
AcDbEntity
  8
0
  6
Continuous
 62
     7
370
    15
100
AcDbLine
 10
1326.8511256897
 20
1335.0802625629
 30
0.0
 11
1326.8511256897
 21
1362.6989091847
 31
0.0
  0
LINE
  5
1EA
330
1F
100
AcDbEntity
  8
0
  6
Continuous
 62
     7
370
    15
100
AcDbLine
 10
1326.8511256897
 20
1332.6989079926
 30
0.0
 11
1326.8511256897
 21
1335.0802625629
 31
0.0
  0
LINE
  5
1EB
330
1F
100
AcDbEntity
  8
0
  6
Continuous
 62
     7
370
    15
100
AcDbLine
 10
1328.8511260175
 20
1336.7627526733
 30
0.0
 11
1328.8511260175
 21
1334.6989045951
 31
0.0
  0
LINE
  5
1EC
330
1F
100
AcDbEntity
  8
0
  6
Continuous
 62
     7
370
    15
100
AcDbLine
 10
1328.8511260175
 20
1360.6989088568
 30
0.0
 11
1328.8511260175
 21
1336.7627526733
 31
0.0
  0
LINE
  5
1ED
330
1F
100
AcDbEntity
  8
0
  6
Continuous
 62
     7
370
    15
100
AcDbLine
 10
1326.8511256897
 20
1421.0191632721
 30
0.0
 11
1326.8511256897
 21
1436.6989101383
 31
0.0
  0
LINE
  5
1EE
330
1F
100
AcDbEntity
  8
0
  6
Continuous
 62
     7
370
    15
100
AcDbLine
 10
1326.8511256897
 20
1406.6989084806
 30
0.0
 11
1326.8511256897
 21
1421.0191632721
 31
0.0
  0
LINE
  5
1EF
330
1F
100
AcDbEntity
  8
0
  6
Continuous
 62
     7
370
    15
100
AcDbLine
 10
1328.8511260175
 20
1421.1097958598
 30
0.0
 11
1328.8511260175
 21
1408.6989083427
 31
0.0
  0
LINE
  5
1F0
330
1F
100
AcDbEntity
  8
0
  6
Continuous
 62
     7
370
    15
100
AcDbLine
 10
1328.8511260175
 20
1434.6989098105
 30
0.0
 11
1328.8511260175
 21
1421.1097958598
 31
0.0
  0
LINE
  5
1F1
330
1F
100
AcDbEntity
  8
0
  6
Continuous
 62
     7
370
    15
100
AcDbLine
 10
1326.8511256897
 20
1481.0191656563
 30
0.0
 11
1326.8511256897
 21
1496.6989050719
 31
0.0
  0
LINE
  5
1F2
330
1F
100
AcDbEntity
  8
0
  6
Continuous
 62
     7
370
    15
100
AcDbLine
 10
1326.8511256897
 20
1466.6989113304
 30
0.0
 11
1326.8511256897
 21
1481.0191656563
 31
0.0
  0
LINE
  5
1F3
330
1F
100
AcDbEntity
  8
0
  6
Continuous
 62
     7
370
    15
100
AcDbLine
 10
1328.8511260175
 20
1481.1097945187
 30
0.0
 11
1328.8511260175
 21
1468.698907933
 31
0.0
  0
LINE
  5
1F4
330
1F
100
AcDbEntity
  8
0
  6
Continuous
 62
     7
370
    15
100
AcDbLine
 10
1328.8511260175
 20
1494.6989084694
 30
0.0
 11
1328.8511260175
 21
1481.1097945187
 31
0.0
  0
LINE
  5
1F5
330
1F
100
AcDbEntity
  8
0
  6
Continuous
 62
     7
370
    15
100
AcDbLine
 10
1323.8511270606
 20
1481.6989119265
 30
0.0
 11
1323.8511270606
 21
1496.6989050719
 31
0.0
  0
LINE
  5
1F6
330
1F
100
AcDbEntity
  8
0
  6
Continuous
 62
     7
370
    15
100
AcDbLine
 10
1288.8511269116
 20
1414.6989083949
 30
0.0
 11
1288.8511269116
 21
1427.0989078197
 31
0.0
  0
LINE
  5
1F7
330
1F
100
AcDbEntity
  8
0
  6
Continuous
 62
     7
370
    15
100
AcDbLine
 10
1289.8511270755
 20
1427.0989078197
 30
0.0
 11
1289.8511270755
 21
1413.698908231
 31
0.0
  0
LINE
  5
1F8
330
1F
100
AcDbEntity
  8
0
  6
Continuous
 62
     7
370
    15
100
AcDbLine
 10
1317.6511264168
 20
1413.698908231
 30
0.0
 11
1317.6511264168
 21
1423.0989090267
 31
0.0
  0
LINE
  5
1F9
330
1F
100
AcDbEntity
  8
0
  6
Continuous
 62
     7
370
    15
100
AcDbLine
 10
1285.8511273511
 20
1496.498909137
 30
0.0
 11
1285.8511273511
 21
1466.8989072654
 31
0.0
  0
LINE
  5
1FA
330
1F
100
AcDbEntity
  8
0
  6
Continuous
 62
     7
370
    15
100
AcDbLine
 10
1282.8511268594
 20
1468.7817509386
 30
0.0
 11
1282.8511268594
 21
1494.6160654637
 31
0.0
  0
LINE
  5
1FB
330
1F
100
AcDbEntity
  8
0
  6
Continuous
 62
     7
370
    15
100
AcDbLine
 10
1286.3511274331
 20
1510.698911092
 30
0.0
 11
1286.3511274331
 21
1459.0989093396
 31
0.0
  0
LINE
  5
1FC
330
1F
100
AcDbEntity
  8
0
  6
Continuous
 62
     7
370
    15
100
AcDbLine
 10
1287.8511267476
 20
1510.698911092
 30
0.0
 11
1287.8511267476
 21
1459.0989093396
 31
0.0
  0
LINE
  5
1FD
330
1F
100
AcDbEntity
  8
0
  6
Continuous
 62
     7
370
    15
100
AcDbLine
 10
1307.35112715
 20
1459.0989093396
 30
0.0
 11
1307.35112715
 21
1510.698911092
 31
0.0
  0
LINE
  5
1FE
330
1F
100
AcDbEntity
  8
0
  6
Continuous
 62
     7
370
    15
100
AcDbLine
 10
1305.8511278354
 20
1459.0989093396
 30
0.0
 11
1305.8511278354
 21
1510.698911092
 31
0.0
  0
LINE
  5
1FF
330
1F
100
AcDbEntity
  8
0
  6
Continuous
 62
     7
370
    15
100
AcDbLine
 10
1288.8715554722
 20
1508.1475864265
 30
0.0
 11
1288.8715554722
 21
1510.698911092
 31
0.0
  0
LINE
  5
200
330
1F
100
AcDbEntity
  8
0
  6
Continuous
 62
     7
370
    15
100
AcDbLine
 10
1288.8715554722
 20
1459.0989093396
 30
0.0
 11
1288.8715554722
 21
1508.1475864265
 31
0.0
  0
LINE
  5
201
330
1F
100
AcDbEntity
  8
0
  6
Continuous
 62
     7
370
    15
100
AcDbLine
 10
1304.8828019523
 20
1510.698911092
 30
0.0
 11
1304.8828019523
 21
1459.0989093396
 31
0.0
  0
LINE
  5
202
330
1F
100
AcDbEntity
  8
0
  6
Continuous
 62
     7
370
    15
100
AcDbLine
 10
1317.8511260771
 20
1292.6989088866
 30
0.0
 11
1323.8511270606
 21
1292.6989088866
 31
0.0
  0
LINE
  5
203
330
1F
100
AcDbEntity
  8
0
  6
Continuous
 62
     7
370
    15
100
AcDbLine
 10
1317.8511260771
 20
1402.6989082906
 30
0.0
 11
1317.8511260771
 21
1423.0989090267
 31
0.0
  0
LINE
  5
204
330
1F
100
AcDbEntity
  8
0
  6
Continuous
 62
     7
370
    15
100
AcDbLine
 10
1317.8511260771
 20
1463.0989099953
 30
0.0
 11
1317.8511260771
 21
1481.6989119265
 31
0.0
  0
LINE
  5
205
330
1F
100
AcDbEntity
  8
0
  6
Continuous
 62
     7
370
    15
100
AcDbLine
 10
1317.8511260771
 20
1481.6989119265
 30
0.0
 11
1323.8511270606
 21
1481.6989119265
 31
0.0
  0
LINE
  5
206
330
1F
100
AcDbEntity
  8
0
  6
Continuous
 62
     7
370
    15
100
AcDbLine
 10
1323.8511270606
 20
1292.6989088866
 30
0.0
 11
1323.8511270606
 21
1428.4728563491
 31
0.0
  0
LINE
  5
207
330
1F
100
AcDbEntity
  8
0
  6
Continuous
 62
     7
370
    15
100
AcDbLine
 10
1323.8511270606
 20
1457.7249589476
 30
0.0
 11
1323.8511270606
 21
1481.6989119265
 31
0.0
  0
LINE
  5
208
330
1F
100
AcDbEntity
  8
0
  6
Continuous
 62
     7
370
    15
100
AcDbLine
 10
1323.8511270606
 20
1277.6989082906
 30
0.0
 11
1323.8511270606
 21
1292.6989088866
 31
0.0
  0
ARC
  5
209
330
1F
100
AcDbEntity
  8
0
  6
Continuous
 62
     7
370
    15
100
AcDbCircle
 10
1320.851176117
 20
1262.7435803096
 30
0.0
 40
15.04606830648451
100
AcDbArc
 50
83.7042889556
 51
96.2170864708
  0
LINE
  5
20A
330
1F
100
AcDbEntity
  8
0
  6
Continuous
 62
     7
370
    15
100
AcDbLine
 10
1317.8511260771
 20
1481.6989119265
 30
0.0
 11
1317.8511260771
 21
1496.6989050719
 31
0.0
  0
LINE
  5
20B
330
1F
100
AcDbEntity
  8
0
  6
Continuous
 62
     7
370
    15
100
AcDbLine
 10
1307.8511263006
 20
1481.0327555153
 30
0.0
 11
1307.8511263006
 21
1496.3989074442
 31
0.0
  0
LINE
  5
20C
330
1F
100
AcDbEntity
  8
0
  6
Continuous
 62
     7
370
    15
100
AcDbLine
 10
1307.8511263006
 20
1466.9989089582
 30
0.0
 11
1307.8511263006
 21
1481.0327555153
 31
0.0
  0
LINE
  5
20D
330
1F
100
AcDbEntity
  8
0
  6
Continuous
 62
     7
370
    15
100
AcDbLine
 10
1308.1511276536
 20
1481.0191656563
 30
0.0
 11
1308.1511276536
 21
1466.6989113304
 31
0.0
  0
LINE
  5
20E
330
1F
100
AcDbEntity
  8
0
  6
Continuous
 62
     7
370
    15
100
AcDbLine
 10
1308.1511276536
 20
1496.6989050719
 30
0.0
 11
1308.1511276536
 21
1481.0191656563
 31
0.0
  0
LINE
  5
20F
330
1F
100
AcDbEntity
  8
0
  6
Continuous
 62
     7
370
    15
100
AcDbLine
 10
1313.5511277937
 20
1481.0191656563
 30
0.0
 11
1313.5511277937
 21
1496.6989050719
 31
0.0
  0
LINE
  5
210
330
1F
100
AcDbEntity
  8
0
  6
Continuous
 62
     7
370
    15
100
AcDbLine
 10
1313.5511277937
 20
1466.6989113304
 30
0.0
 11
1313.5511277937
 21
1481.0191656563
 31
0.0
  0
LINE
  5
211
330
1F
100
AcDbEntity
  8
0
  6
Continuous
 62
     7
370
    15
100
AcDbLine
 10
1294.3511268818
 20
-647.3010440257
 30
0.0
 11
1294.3511268818
 21
-627.3010630992
 31
0.0
  0
LINE
  5
212
330
1F
100
AcDbEntity
  8
0
  6
Continuous
 62
     7
370
    15
100
AcDbLine
 10
1317.8511260771
 20
1402.6989082906
 30
0.0
 11
1317.8511260771
 21
-647.3010440257
 31
0.0
  0
LINE
  5
213
330
1F
100
AcDbEntity
  8
0
  6
Continuous
 62
     7
370
    15
100
AcDbLine
 10
1317.8511260771
 20
-647.3010440257
 30
0.0
 11
1301.3511261665
 21
-647.3010440257
 31
0.0
  0
LINE
  5
214
330
1F
100
AcDbEntity
  8
0
  6
Continuous
 62
     7
370
    15
100
AcDbLine
 10
1301.3511261665
 20
-627.3010630992
 30
0.0
 11
1301.3511261665
 21
-647.3010440257
 31
0.0
  0
LINE
  5
215
330
1F
100
AcDbEntity
  8
0
  6
Continuous
 62
     7
370
    15
100
AcDbLine
 10
1294.3511268818
 20
-627.3010630992
 30
0.0
 11
1301.3511261665
 21
-627.3010630992
 31
0.0
  0
LINE
  5
216
330
1F
100
AcDbEntity
  8
0
  6
Continuous
 62
     7
370
    15
100
AcDbLine
 10
1277.8511269712
 20
1402.6989082906
 30
0.0
 11
1277.8511269712
 21
-647.3010440257
 31
0.0
  0
LINE
  5
217
330
1F
100
AcDbEntity
  8
0
  6
Continuous
 62
     7
370
    15
100
AcDbLine
 10
1294.3511268818
 20
-647.3010440257
 30
0.0
 11
1277.8511269712
 21
-647.3010440257
 31
0.0
  0
LINE
  5
218
330
1F
100
AcDbEntity
  8
0
  6
Continuous
 62
     7
370
    15
100
AcDbLine
 10
1317.8511260771
 20
1402.6989082906
 30
0.0
 11
1277.8511269712
 21
1402.6989082906
 31
0.0
  0
LINE
  5
219
330
1F
100
AcDbEntity
  8
0
  6
Continuous
 62
     7
370
    15
100
AcDbLine
 10
1265.3771786713
 20
1418.0989082071
 30
0.0
 11
1265.3771786713
 21
1468.0989052269
 31
0.0
  0
LINE
  5
21A
330
1F
100
AcDbEntity
  8
0
  6
Continuous
 62
     7
370
    15
100
AcDbLine
 10
1263.3771783434
 20
1468.0989052269
 30
0.0
 11
1263.3771783434
 21
1418.0989082071
 31
0.0
  0
LINE
  5
21B
330
1F
100
AcDbEntity
  8
0
  6
Continuous
 62
     7
370
    15
100
AcDbLine
 10
1266.3771788352
 20
1467.0989106509
 30
0.0
 11
1266.3771788352
 21
1419.098908371
 31
0.0
  0
LINE
  5
21C
330
1F
100
AcDbEntity
  8
0
  6
Continuous
 62
     8
370
    15
100
AcDbLine
 10
1275.933969649
 20
1307.6989094827
 30
0.0
 11
1275.933969649
 21
1277.6989082906
 31
0.0
  0
LINE
  5
21D
330
1F
100
AcDbEntity
  8
0
  6
Continuous
 62
     8
370
    15
100
AcDbLine
 10
1275.792548316
 20
1281.3843454334
 30
0.0
 11
1275.792548316
 21
1307.640333018
 31
0.0
  0
LINE
  5
21E
330
1F
100
AcDbEntity
  8
0
  6
Continuous
 62
     8
370
    15
100
AcDbLine
 10
1275.792548316
 20
1277.7574847552
 30
0.0
 11
1275.792548316
 21
1281.3843454334
 31
0.0
  0
LINE
  5
21F
330
1F
100
AcDbEntity
  8
0
  6
Continuous
 62
     8
370
    15
100
AcDbLine
 10
1277.6511269762
 20
1281.3399846766
 30
0.0
 11
1277.6511269762
 21
1307.6989094827
 31
0.0
  0
LINE
  5
220
330
1F
100
AcDbEntity
  8
0
  6
Continuous
 62
     8
370
    15
100
AcDbLine
 10
1277.6511269762
 20
1277.6989082906
 30
0.0
 11
1277.6511269762
 21
1281.3399846766
 31
0.0
  0
LINE
  5
221
330
1F
100
AcDbEntity
  8
0
  6
Continuous
 62
     8
370
    15
100
AcDbLine
 10
1273.9097055741
 20
1282.8101481411
 30
0.0
 11
1273.9097055741
 21
1279.6403284285
 31
0.0
  0
LINE
  5
222
330
1F
100
AcDbEntity
  8
0
  6
Continuous
 62
     8
370
    15
100
AcDbLine
 10
1273.9097055741
 20
1305.7574893448
 30
0.0
 11
1273.9097055741
 21
1282.8101481411
 31
0.0
  0
LINE
  5
223
330
1F
100
AcDbEntity
  8
0
  6
Continuous
 62
     8
370
    15
100
AcDbLine
 10
1275.933969649
 20
1360.7323619637
 30
0.0
 11
1275.933969649
 21
1332.6989079926
 31
0.0
  0
LINE
  5
224
330
1F
100
AcDbEntity
  8
0
  6
Continuous
 62
     8
370
    15
100
AcDbLine
 10
1275.933969649
 20
1362.6989091847
 30
0.0
 11
1275.933969649
 21
1360.7323619637
 31
0.0
  0
LINE
  5
225
330
1F
100
AcDbEntity
  8
0
  6
Continuous
 62
     8
370
    15
100
AcDbLine
 10
1275.792548316
 20
1332.7574844572
 30
0.0
 11
1275.792548316
 21
1362.6403289947
 31
0.0
  0
LINE
  5
226
330
1F
100
AcDbEntity
  8
0
  6
Continuous
 62
     8
370
    15
100
AcDbLine
 10
1277.6511269762
 20
1332.6989079926
 30
0.0
 11
1277.6511269762
 21
1362.6989091847
 31
0.0
  0
LINE
  5
227
330
1F
100
AcDbEntity
  8
0
  6
Continuous
 62
     8
370
    15
100
AcDbLine
 10
1273.9097055741
 20
1360.7574853215
 30
0.0
 11
1273.9097055741
 21
1334.6403281304
 31
0.0
  0
LINE
  5
228
330
1F
100
AcDbEntity
  8
0
  6
Continuous
 62
     8
370
    15
100
AcDbLine
 10
1323.3943356895
 20
1428.0989079836
 30
0.0
 11
1323.3943356895
 21
1458.0989073131
 31
0.0
  0
LINE
  5
229
330
1F
100
AcDbEntity
  8
0
  6
Continuous
 62
     8
370
    15
100
AcDbLine
 10
1321.6771780275
 20
1437.3531716976
 30
0.0
 11
1321.6771780275
 21
1428.0989079836
 31
0.0
  0
LINE
  5
22A
330
1F
100
AcDbEntity
  8
0
  6
Continuous
 62
     8
370
    15
100
AcDbLine
 10
1321.6771780275
 20
1458.0989073131
 30
0.0
 11
1321.6771780275
 21
1437.3531716976
 31
0.0
  0
LINE
  5
22B
330
1F
100
AcDbEntity
  8
0
  6
Continuous
 62
     8
370
    15
100
AcDbLine
 10
1323.5357588851
 20
1437.3756128463
 30
0.0
 11
1323.5357588851
 21
1428.1574863109
 31
0.0
  0
LINE
  5
22C
330
1F
100
AcDbEntity
  8
0
  6
Continuous
 62
     8
370
    15
100
AcDbLine
 10
1323.5357588851
 20
1458.0403308484
 30
0.0
 11
1323.5357588851
 21
1437.3756128463
 31
0.0
  0
LINE
  5
22D
330
1F
100
AcDbEntity
  8
0
  6
Continuous
 62
     8
370
    15
100
AcDbLine
 10
1325.418598833
 20
1438.0968327734
 30
0.0
 11
1325.418598833
 21
1456.1574871752
 31
0.0
  0
LINE
  5
22E
330
1F
100
AcDbEntity
  8
0
  6
Continuous
 62
     8
370
    15
100
AcDbLine
 10
1325.418598833
 20
1430.0403299841
 30
0.0
 11
1325.418598833
 21
1438.0968327734
 31
0.0
  0
LINE
  5
22F
330
1F
100
AcDbEntity
  8
0
  6
Continuous
 62
     8
370
    15
100
AcDbLine
 10
1284.9339697272
 20
1476.8095727179
 30
0.0
 11
1284.9339697272
 21
1466.6989113304
 31
0.0
  0
LINE
  5
230
330
1F
100
AcDbEntity
  8
0
  6
Continuous
 62
     8
370
    15
100
AcDbLine
 10
1284.9339697272
 20
1496.6989050719
 30
0.0
 11
1284.9339697272
 21
1476.8095727179
 31
0.0
  0
LINE
  5
231
330
1F
100
AcDbEntity
  8
0
  6
Continuous
 62
     8
370
    15
100
AcDbLine
 10
1285.6511267596
 20
1466.6989113304
 30
0.0
 11
1285.6511267596
 21
1496.6989050719
 31
0.0
  0
LINE
  5
232
330
1F
100
AcDbEntity
  8
0
  6
Continuous
 62
     8
370
    15
100
AcDbLine
 10
1284.7925483943
 20
1466.7574877951
 30
0.0
 11
1284.7925483943
 21
1496.6403286073
 31
0.0
  0
LINE
  5
233
330
1F
100
AcDbEntity
  8
0
  6
Continuous
 62
     8
370
    15
100
AcDbLine
 10
1282.9097056524
 20
1494.757484934
 30
0.0
 11
1282.9097056524
 21
1468.6403314683
 31
0.0
  0
LINE
  5
234
330
1F
100
AcDbEntity
  8
0
  6
Continuous
 62
     7
370
    15
100
AcDbLine
 10
-534.119269306
 20
-702.6396788324
 30
0.0
 11
-544.09321999
 21
-702.6396788324
 31
0.0
  0
LINE
  5
235
330
1F
100
AcDbEntity
  8
0
  6
Continuous
 62
     7
370
    15
100
AcDbLine
 10
-573.1453210657
 20
-702.6396788324
 30
0.0
 11
-576.6192660277
 21
-702.6396788324
 31
0.0
  0
LINE
  5
236
330
1F
100
AcDbEntity
  8
0
  6
Continuous
 62
     7
370
    15
100
AcDbLine
 10
-608.6192675476
 20
-702.6396788324
 30
0.0
 11
-656.6192681977
 21
-702.6396788324
 31
0.0
  0
LINE
  5
237
330
1F
100
AcDbEntity
  8
0
  6
Continuous
 62
     7
370
    15
100
AcDbLine
 10
-21.1192802136
 20
-702.6396788324
 30
0.0
 11
-519.1371277516
 21
-702.6396788324
 31
0.0
  0
LINE
  5
238
330
1F
100
AcDbEntity
  8
0
  6
Continuous
 62
     7
370
    15
100
AcDbLine
 10
492.8807183559
 20
-702.6396788324
 30
0.0
 11
155.9068127925
 21
-702.6396788324
 31
0.0
  0
LINE
  5
239
330
1F
100
AcDbEntity
  8
0
  6
Continuous
 62
     7
370
    15
100
AcDbLine
 10
126.854674464
 20
-702.6396788324
 30
0.0
 11
-6.1371163075
 21
-702.6396788324
 31
0.0
  0
LINE
  5
23A
330
1F
100
AcDbEntity
  8
0
  6
Continuous
 62
     7
370
    15
100
AcDbLine
 10
1005.8807298
 20
-702.6396788324
 30
0.0
 11
507.8628226573
 21
-702.6396788324
 31
0.0
  0
LINE
  5
23B
330
1F
100
AcDbEntity
  8
0
  6
Continuous
 62
     7
370
    15
100
AcDbLine
 10
1143.3807774837
 20
-702.6396788324
 30
0.0
 11
1095.3806802089
 21
-702.6396788324
 31
0.0
  0
LINE
  5
23C
330
1F
100
AcDbEntity
  8
0
  6
Continuous
 62
     7
370
    15
100
AcDbLine
 10
1063.3807345683
 20
-702.6396788324
 30
0.0
 11
1020.8628341014
 21
-702.6396788324
 31
0.0
  0
LINE
  5
23D
330
1F
100
AcDbEntity
  8
0
  6
Continuous
 62
     7
370
    15
100
AcDbLine
 10
1020.9307833965
 20
-727.6396787393
 30
0.0
 11
1063.3807345683
 21
-727.6396787393
 31
0.0
  0
LINE
  5
23E
330
1F
100
AcDbEntity
  8
0
  6
Continuous
 62
     7
370
    15
100
AcDbLine
 10
1095.3806802089
 20
-727.6396787393
 30
0.0
 11
1143.3807774837
 21
-727.6396787393
 31
0.0
  0
LINE
  5
23F
330
1F
100
AcDbEntity
  8
0
  6
Continuous
 62
     7
370
    15
100
AcDbLine
 10
507.9307719524
 20
-727.6396787393
 30
0.0
 11
1005.8627291972
 21
-727.6396787393
 31
0.0
  0
LINE
  5
240
330
1F
100
AcDbEntity
  8
0
  6
Continuous
 62
     7
370
    15
100
AcDbLine
 10
-6.0692862218
 20
-727.6396787393
 30
0.0
 11
126.3807579334
 21
-727.6396787393
 31
0.0
  0
LINE
  5
241
330
1F
100
AcDbEntity
  8
0
  6
Continuous
 62
     7
370
    15
100
AcDbLine
 10
156.3807293231
 20
-727.6396787393
 30
0.0
 11
492.8627177532
 21
-727.6396787393
 31
0.0
  0
LINE
  5
242
330
1F
100
AcDbEntity
  8
0
  6
Continuous
 62
     7
370
    15
100
AcDbLine
 10
-519.0692678635
 20
-727.6396787393
 30
0.0
 11
-21.1372808163
 21
-727.6396787393
 31
0.0
  0
LINE
  5
243
330
1F
100
AcDbEntity
  8
0
  6
Continuous
 62
     7
370
    15
100
AcDbLine
 10
-656.6192681977
 20
-727.6396787393
 30
0.0
 11
-608.6192675476
 21
-727.6396787393
 31
0.0
  0
LINE
  5
244
330
1F
100
AcDbEntity
  8
0
  6
Continuous
 62
     7
370
    15
100
AcDbLine
 10
-576.6192660277
 20
-727.6396787393
 30
0.0
 11
-573.6192673986
 21
-727.6396787393
 31
0.0
  0
LINE
  5
245
330
1F
100
AcDbEntity
  8
0
  6
Continuous
 62
     7
370
    15
100
AcDbLine
 10
-543.6192662065
 20
-727.6396787393
 30
0.0
 11
-534.1373071616
 21
-727.6396787393
 31
0.0
  0
LINE
  5
246
330
1F
100
AcDbEntity
  8
0
  6
Continuous
 62
     7
370
    15
100
AcDbLine
 10
1059.3807860668
 20
-731.7396773624
 30
0.0
 11
1059.3807860668
 21
-739.7396786737
 31
0.0
  0
LINE
  5
247
330
1F
100
AcDbEntity
  8
0
  6
Continuous
 62
     7
370
    15
100
AcDbLine
 10
1099.3807479198
 20
-739.7396786737
 30
0.0
 11
1099.3807479198
 21
-731.7396773624
 31
0.0
  0
LINE
  5
248
330
1F
100
AcDbEntity
  8
0
  6
Continuous
 62
     7
370
    15
100
AcDbLine
 10
-612.6192682033
 20
-731.7396773624
 30
0.0
 11
-612.6192682033
 21
-739.7396786737
 31
0.0
  0
LINE
  5
249
330
1F
100
AcDbEntity
  8
0
  6
Continuous
 62
     7
370
    15
100
AcDbLine
 10
1095.3806802089
 20
-700.9396789263
 30
0.0
 11
1093.580739146
 21
-699.1396787243
 31
0.0
  0
LINE
  5
24A
330
1F
100
AcDbEntity
  8
0
  6
Continuous
 62
     7
370
    15
100
AcDbLine
 10
1065.1806756313
 20
-699.1396787243
 30
0.0
 11
1063.3807345683
 21
-700.9396789263
 31
0.0
  0
LINE
  5
24B
330
1F
100
AcDbEntity
  8
0
  6
Continuous
 62
     7
370
    15
100
AcDbLine
 10
1063.3807345683
 20
-727.6396787393
 30
0.0
 11
1063.3807345683
 21
-731.7396773624
 31
0.0
  0
LINE
  5
24C
330
1F
100
AcDbEntity
  8
0
  6
Continuous
 62
     7
370
    15
100
AcDbLine
 10
1063.3807345683
 20
-700.9396789263
 30
0.0
 11
1063.3807345683
 21
-702.5396785366
 31
0.0
  0
LINE
  5
24D
330
1F
100
AcDbEntity
  8
0
  6
Continuous
 62
     7
370
    15
100
AcDbLine
 10
1095.3806802089
 20
-702.5396785366
 30
0.0
 11
1095.3806802089
 21
-700.9396789263
 31
0.0
  0
LINE
  5
24E
330
1F
100
AcDbEntity
  8
0
  6
Continuous
 62
     7
370
    15
100
AcDbLine
 10
1095.3806802089
 20
-731.7396773624
 30
0.0
 11
1095.3806802089
 21
-727.6396787393
 31
0.0
  0
LINE
  5
24F
330
1F
100
AcDbEntity
  8
0
  6
Continuous
 62
     7
370
    15
100
AcDbLine
 10
-608.6192675476
 20
-727.6396787393
 30
0.0
 11
-608.6192675476
 21
-731.7396773624
 31
0.0
  0
LINE
  5
250
330
1F
100
AcDbEntity
  8
0
  6
Continuous
 62
     7
370
    15
100
AcDbLine
 10
-608.6192675476
 20
-700.9396789263
 30
0.0
 11
-608.6192675476
 21
-702.5396785366
 31
0.0
  0
LINE
  5
251
330
1F
100
AcDbEntity
  8
0
  6
Continuous
 62
     7
370
    15
100
AcDbLine
 10
-576.6192660277
 20
-702.5396785366
 30
0.0
 11
-576.6192660277
 21
-700.9396789263
 31
0.0
  0
LINE
  5
252
330
1F
100
AcDbEntity
  8
0
  6
Continuous
 62
     7
370
    15
100
AcDbLine
 10
-576.6192660277
 20
-731.7396773624
 30
0.0
 11
-576.6192660277
 21
-727.6396787393
 31
0.0
  0
LINE
  5
253
330
1F
100
AcDbEntity
  8
0
  6
Continuous
 62
     7
370
    15
100
AcDbLine
 10
-576.6192660277
 20
-700.9396789263
 30
0.0
 11
-578.4192666953
 21
-699.1396787243
 31
0.0
  0
LINE
  5
254
330
1F
100
AcDbEntity
  8
0
  6
Continuous
 62
     7
370
    15
100
AcDbLine
 10
-606.8192668801
 20
-699.1396787243
 30
0.0
 11
-608.6192675476
 21
-700.9396789263
 31
0.0
  0
LINE
  5
255
330
1F
100
AcDbEntity
  8
0
  6
Continuous
 62
     7
370
    15
100
AcDbLine
 10
-21.1192802136
 20
-684.6396791416
 30
0.0
 11
-21.1192802136
 21
-702.6396788324
 31
0.0
  0
LINE
  5
256
330
1F
100
AcDbEntity
  8
0
  6
Continuous
 62
     7
370
    15
100
AcDbLine
 10
-6.1192945187
 20
-702.6396788324
 30
0.0
 11
-6.1192945187
 21
-684.6396791416
 31
0.0
  0
LINE
  5
257
330
1F
100
AcDbEntity
  8
0
  6
Continuous
 62
     7
370
    15
100
AcDbLine
 10
1005.8807298
 20
-684.6396791416
 30
0.0
 11
1005.8807298
 21
-702.6396788324
 31
0.0
  0
LINE
  5
258
330
1F
100
AcDbEntity
  8
0
  6
Continuous
 62
     7
370
    15
100
AcDbLine
 10
1020.8807154949
 20
-702.6396788324
 30
0.0
 11
1020.8807154949
 21
-684.6396791416
 31
0.0
  0
LINE
  5
259
330
1F
100
AcDbEntity
  8
0
  6
Continuous
 62
     7
370
    15
100
AcDbLine
 10
-534.119269306
 20
-684.6396791416
 30
0.0
 11
-534.119269306
 21
-702.6396788324
 31
0.0
  0
LINE
  5
25A
330
1F
100
AcDbEntity
  8
0
  6
Continuous
 62
     7
370
    15
100
AcDbLine
 10
-519.1192612593
 20
-702.6396788324
 30
0.0
 11
-519.1192612593
 21
-684.6396791416
 31
0.0
  0
LINE
  5
25B
330
1F
100
AcDbEntity
  8
0
  6
Continuous
 62
     7
370
    15
100
AcDbLine
 10
492.8807183559
 20
-684.6396791416
 30
0.0
 11
492.8807183559
 21
-702.6396788324
 31
0.0
  0
LINE
  5
25C
330
1F
100
AcDbEntity
  8
0
  6
Continuous
 62
     7
370
    15
100
AcDbLine
 10
507.8807040508
 20
-702.6396788324
 30
0.0
 11
507.8807040508
 21
-684.6396791416
 31
0.0
  0
LINE
  5
25D
330
1F
100
AcDbEntity
  8
0
  6
Continuous
 62
     7
370
    15
100
AcDbLine
 10
1143.5806914623
 20
-702.6396788324
 30
0.0
 11
1143.3807774837
 21
-702.8396784926
 31
0.0
  0
LINE
  5
25E
330
1F
100
AcDbEntity
  8
0
  6
Continuous
 62
     7
370
    15
100
AcDbLine
 10
1143.3807774837
 20
-727.439679079
 30
0.0
 11
1143.5806914623
 21
-727.6396787393
 31
0.0
  0
LINE
  5
25F
330
1F
100
AcDbEntity
  8
0
  6
Continuous
 62
     7
370
    15
100
AcDbLine
 10
1145.1807185466
 20
-727.6396787393
 30
0.0
 11
1145.3807517345
 21
-727.439679079
 31
0.0
  0
LINE
  5
260
330
1F
100
AcDbEntity
  8
0
  6
Continuous
 62
     7
370
    15
100
AcDbLine
 10
1145.3807517345
 20
-702.8396784926
 30
0.0
 11
1145.1807185466
 21
-702.6396788324
 31
0.0
  0
LINE
  5
261
330
1F
100
AcDbEntity
  8
0
  6
Continuous
 62
     7
370
    15
100
AcDbLine
 10
1145.1807185466
 20
-702.6396788324
 30
0.0
 11
1143.5806914623
 21
-702.6396788324
 31
0.0
  0
LINE
  5
262
330
1F
100
AcDbEntity
  8
0
  6
Continuous
 62
     7
370
    15
100
AcDbLine
 10
1143.5806914623
 20
-727.6396787393
 30
0.0
 11
1145.1807185466
 21
-727.6396787393
 31
0.0
  0
LINE
  5
263
330
1F
100
AcDbEntity
  8
0
  6
Continuous
 62
     7
370
    15
100
AcDbLine
 10
-656.8192683236
 20
-727.6396787393
 30
0.0
 11
-656.6192681977
 21
-727.439679079
 31
0.0
  0
LINE
  5
264
330
1F
100
AcDbEntity
  8
0
  6
Continuous
 62
     7
370
    15
100
AcDbLine
 10
-656.6192681977
 20
-702.8396784926
 30
0.0
 11
-656.8192683236
 21
-702.6396788324
 31
0.0
  0
LINE
  5
265
330
1F
100
AcDbEntity
  8
0
  6
Continuous
 62
     7
370
    15
100
AcDbLine
 10
-658.4192682977
 20
-702.6396788324
 30
0.0
 11
-658.6192682927
 21
-702.8396784926
 31
0.0
  0
LINE
  5
266
330
1F
100
AcDbEntity
  8
0
  6
Continuous
 62
     7
370
    15
100
AcDbLine
 10
-658.6192682927
 20
-727.439679079
 30
0.0
 11
-658.4192682977
 21
-727.6396787393
 31
0.0
  0
LINE
  5
267
330
1F
100
AcDbEntity
  8
0
  6
Continuous
 62
     7
370
    15
100
AcDbLine
 10
-658.4192682977
 20
-727.6396787393
 30
0.0
 11
-656.8192683236
 21
-727.6396787393
 31
0.0
  0
LINE
  5
268
330
1F
100
AcDbEntity
  8
0
  6
Continuous
 62
     7
370
    15
100
AcDbLine
 10
-656.8192683236
 20
-702.6396788324
 30
0.0
 11
-658.4192682977
 21
-702.6396788324
 31
0.0
  0
LINE
  5
269
330
1F
100
AcDbEntity
  8
0
  6
Continuous
 62
     7
370
    15
100
AcDbLine
 10
-573.6192673986
 20
-732.3136291134
 30
0.0
 11
-573.6192673986
 21
-735.9136267232
 31
0.0
  0
LINE
  5
26A
330
1F
100
AcDbEntity
  8
0
  6
Continuous
 62
     7
370
    15
100
AcDbLine
 10
-543.6192662065
 20
-735.9136267232
 30
0.0
 11
-543.6192662065
 21
-732.3136291134
 31
0.0
  0
LINE
  5
26B
330
1F
100
AcDbEntity
  8
0
  6
Continuous
 62
     7
370
    15
100
AcDbLine
 10
-543.6192662065
 20
-732.3136291134
 30
0.0
 11
-543.8192695921
 21
-732.1136257278
 31
0.0
  0
LINE
  5
26C
330
1F
100
AcDbEntity
  8
0
  6
Continuous
 62
     7
370
    15
100
AcDbLine
 10
-573.4192714636
 20
-732.1136257278
 30
0.0
 11
-573.6192673986
 21
-732.3136291134
 31
0.0
  0
LINE
  5
26D
330
1F
100
AcDbEntity
  8
0
  6
Continuous
 62
     7
370
    15
100
AcDbLine
 10
-573.6192673986
 20
-735.9136267232
 30
0.0
 11
-573.4192714636
 21
-736.1136263835
 31
0.0
  0
LINE
  5
26E
330
1F
100
AcDbEntity
  8
0
  6
Continuous
 62
     7
370
    15
100
AcDbLine
 10
-543.8192695921
 20
-736.1136263835
 30
0.0
 11
-543.6192662065
 21
-735.9136267232
 31
0.0
  0
LINE
  5
26F
330
1F
100
AcDbEntity
  8
0
  6
Continuous
 62
     7
370
    15
100
AcDbLine
 10
156.3807293231
 20
-732.3136291134
 30
0.0
 11
156.1807557399
 21
-732.1136257278
 31
0.0
  0
LINE
  5
270
330
1F
100
AcDbEntity
  8
0
  6
Continuous
 62
     7
370
    15
100
AcDbLine
 10
126.5807315166
 20
-732.1136257278
 30
0.0
 11
126.3807579334
 21
-732.3136291134
 31
0.0
  0
LINE
  5
271
330
1F
100
AcDbEntity
  8
0
  6
Continuous
 62
     7
370
    15
100
AcDbLine
 10
126.3807579334
 20
-732.3136291134
 30
0.0
 11
126.3807579334
 21
-735.9136267232
 31
0.0
  0
LINE
  5
272
330
1F
100
AcDbEntity
  8
0
  6
Continuous
 62
     7
370
    15
100
AcDbLine
 10
156.3807293231
 20
-735.9136267232
 30
0.0
 11
156.3807293231
 21
-732.3136291134
 31
0.0
  0
LINE
  5
273
330
1F
100
AcDbEntity
  8
0
  6
Continuous
 62
     7
370
    15
100
AcDbLine
 10
126.3807579334
 20
-735.9136267232
 30
0.0
 11
126.5807315166
 21
-736.1136263835
 31
0.0
  0
LINE
  5
274
330
1F
100
AcDbEntity
  8
0
  6
Continuous
 62
     7
370
    15
100
AcDbLine
 10
156.1807557399
 20
-736.1136263835
 30
0.0
 11
156.3807293231
 21
-735.9136267232
 31
0.0
  0
ARC
  5
275
330
1F
100
AcDbEntity
  8
0
  6
Continuous
 62
     7
370
    15
100
AcDbCircle
 10
126.5807317073
 20
-694.19646999
 30
0.0
 40
0.2000000000000498
100
AcDbArc
 50
135.0
 51
180.0
  0
ARC
  5
276
330
1F
100
AcDbEntity
  8
0
  6
Continuous
 62
     7
370
    15
100
AcDbCircle
 10
156.1807317073
 20
-694.19646999
 30
0.0
 40
0.2000000000000498
100
AcDbArc
 50
0.0
 51
45.0
  0
LINE
  5
277
330
1F
100
AcDbEntity
  8
0
  6
Continuous
 62
     7
370
    15
100
AcDbLine
 10
126.3807579334
 20
-694.1964699554
 30
0.0
 11
126.3807579334
 21
-695.9136272826
 31
0.0
  0
LINE
  5
278
330
1F
100
AcDbEntity
  8
0
  6
Continuous
 62
     7
370
    15
100
AcDbLine
 10
156.3807293231
 20
-695.9136272826
 30
0.0
 11
156.3807293231
 21
-694.1964699554
 31
0.0
  0
ARC
  5
279
330
1F
100
AcDbEntity
  8
0
  6
Continuous
 62
     7
370
    15
100
AcDbCircle
 10
156.1807317073
 20
-695.9136272776
 30
0.0
 40
0.2000000000000455
100
AcDbArc
 50
270.0
 51
0.0
  0
ARC
  5
27A
330
1F
100
AcDbEntity
  8
0
  6
Continuous
 62
     7
370
    15
100
AcDbCircle
 10
126.5807317073
 20
-695.9136272776
 30
0.0
 40
0.2000000000000455
100
AcDbArc
 50
180.0
 51
270.0
  0
LINE
  5
27B
330
1F
100
AcDbEntity
  8
0
  6
Continuous
 62
     7
370
    15
100
AcDbLine
 10
156.3221379573
 20
-694.0550486224
 30
0.0
 11
154.4392868335
 21
-692.1722058805
 31
0.0
  0
LINE
  5
27C
330
1F
100
AcDbEntity
  8
0
  6
Continuous
 62
     7
370
    15
100
AcDbLine
 10
128.3221408183
 20
-692.1722058805
 30
0.0
 11
126.4392896945
 21
-694.0550486224
 31
0.0
  0
ARC
  5
27D
330
1F
100
AcDbEntity
  8
0
  6
Continuous
 62
     7
370
    15
100
AcDbCircle
 10
154.2978889948
 20
-692.3136272776
 30
0.0
 40
0.1999999999999695
100
AcDbArc
 50
45.0
 51
90.0
  0
ARC
  5
27E
330
1F
100
AcDbEntity
  8
0
  6
Continuous
 62
     7
370
    15
100
AcDbCircle
 10
128.4635744198
 20
-692.3136272776
 30
0.0
 40
0.1999999999999695
100
AcDbArc
 50
90.0
 51
135.0
  0
ARC
  5
27F
330
1F
100
AcDbEntity
  8
0
  6
Continuous
 62
     7
370
    15
100
AcDbCircle
 10
1064.5807317073
 20
-739.9396787008
 30
0.0
 40
0.2000000000001592
100
AcDbArc
 50
90.0
 51
180.0
  0
ARC
  5
280
330
1F
100
AcDbEntity
  8
0
  6
Continuous
 62
     7
370
    15
100
AcDbCircle
 10
1094.1807317073
 20
-739.9396787008
 30
0.0
 40
0.2000000000001592
100
AcDbArc
 50
0.0
 51
90.0
  0
LINE
  5
281
330
1F
100
AcDbEntity
  8
0
  6
Continuous
 62
     7
370
    15
100
AcDbLine
 10
1094.3807526882
 20
-741.6568359959
 30
0.0
 11
1094.3807526882
 21
-739.9396783339
 31
0.0
  0
LINE
  5
282
330
1F
100
AcDbEntity
  8
0
  6
Continuous
 62
     7
370
    15
100
AcDbLine
 10
1064.3807812984
 20
-739.9396783339
 30
0.0
 11
1064.3807812984
 21
-741.6568359959
 31
0.0
  0
ARC
  5
283
330
1F
100
AcDbEntity
  8
0
  6
Continuous
 62
     7
370
    15
100
AcDbCircle
 10
1094.1807317073
 20
-741.6568359883
 30
0.0
 40
0.2000000000000498
100
AcDbArc
 50
315.0
 51
0.0
  0
ARC
  5
284
330
1F
100
AcDbEntity
  8
0
  6
Continuous
 62
     7
370
    15
100
AcDbCircle
 10
1064.5807317073
 20
-741.6568359883
 30
0.0
 40
0.2000000000000498
100
AcDbArc
 50
180.0
 51
225.0
  0
LINE
  5
285
330
1F
100
AcDbEntity
  8
0
  6
Continuous
 62
     7
370
    15
100
AcDbLine
 10
1064.4393130596
 20
-741.7982591915
 30
0.0
 11
1066.3221045787
 21
-743.6810991394
 31
0.0
  0
LINE
  5
286
330
1F
100
AcDbEntity
  8
0
  6
Continuous
 62
     7
370
    15
100
AcDbLine
 10
1092.4393101985
 20
-743.6810991394
 30
0.0
 11
1094.3221017177
 21
-741.7982591915
 31
0.0
  0
ARC
  5
287
330
1F
100
AcDbEntity
  8
0
  6
Continuous
 62
     7
370
    15
100
AcDbCircle
 10
1066.4635744198
 20
-743.5396787008
 30
0.0
 40
0.2000000000001302
100
AcDbArc
 50
225.0
 51
270.0
  0
ARC
  5
288
330
1F
100
AcDbEntity
  8
0
  6
Continuous
 62
     7
370
    15
100
AcDbCircle
 10
1092.2978889948
 20
-743.5396787008
 30
0.0
 40
0.2000000000001302
100
AcDbArc
 50
270.0
 51
315.0
  0
LINE
  5
289
330
1F
100
AcDbEntity
  8
0
  6
Continuous
 62
     7
370
    15
100
AcDbLine
 10
-573.6192673986
 20
-694.1964699554
 30
0.0
 11
-573.6192673986
 21
-695.9136272826
 31
0.0
  0
LINE
  5
28A
330
1F
100
AcDbEntity
  8
0
  6
Continuous
 62
     7
370
    15
100
AcDbLine
 10
-543.6192662065
 20
-695.9136272826
 30
0.0
 11
-543.6192662065
 21
-694.1964699554
 31
0.0
  0
ARC
  5
28B
330
1F
100
AcDbEntity
  8
0
  6
Continuous
 62
     7
370
    15
100
AcDbCircle
 10
-573.4192682927
 20
-694.19646999
 30
0.0
 40
0.2000000000000498
100
AcDbArc
 50
135.0
 51
180.0
  0
ARC
  5
28C
330
1F
100
AcDbEntity
  8
0
  6
Continuous
 62
     7
370
    15
100
AcDbCircle
 10
-543.8192682927
 20
-694.19646999
 30
0.0
 40
0.2000000000000498
100
AcDbArc
 50
0.0
 51
45.0
  0
ARC
  5
28D
330
1F
100
AcDbEntity
  8
0
  6
Continuous
 62
     7
370
    15
100
AcDbCircle
 10
-543.8192682927
 20
-695.9136272776
 30
0.0
 40
0.2000000000000455
100
AcDbArc
 50
270.0
 51
0.0
  0
ARC
  5
28E
330
1F
100
AcDbEntity
  8
0
  6
Continuous
 62
     7
370
    15
100
AcDbCircle
 10
-573.4192682927
 20
-695.9136272776
 30
0.0
 40
0.2000000000001592
100
AcDbArc
 50
180.0
 51
270.0
  0
LINE
  5
28F
330
1F
100
AcDbEntity
  8
0
  6
Continuous
 62
     7
370
    15
100
AcDbLine
 10
-543.6778501218
 20
-694.0550486224
 30
0.0
 11
-545.5606863444
 21
-692.1722058805
 31
0.0
  0
LINE
  5
290
330
1F
100
AcDbEntity
  8
0
  6
Continuous
 62
     7
370
    15
100
AcDbLine
 10
-571.6778472607
 20
-692.1722058805
 30
0.0
 11
-573.560690934
 21
-694.0550486224
 31
0.0
  0
ARC
  5
291
330
1F
100
AcDbEntity
  8
0
  6
Continuous
 62
     7
370
    15
100
AcDbCircle
 10
-545.7021110052
 20
-692.3136272776
 30
0.0
 40
0.1999999999999695
100
AcDbArc
 50
45.0
 51
90.0
  0
ARC
  5
292
330
1F
100
AcDbEntity
  8
0
  6
Continuous
 62
     7
370
    15
100
AcDbCircle
 10
-571.5364255802
 20
-692.3136272776
 30
0.0
 40
0.1999999999999695
100
AcDbArc
 50
90.0
 51
135.0
  0
LINE
  5
293
330
1F
100
AcDbEntity
  8
0
  6
Continuous
 62
     7
370
    15
100
AcDbLine
 10
-577.6192680543
 20
-741.6568359959
 30
0.0
 11
-577.6192680543
 21
-739.9396783339
 31
0.0
  0
LINE
  5
294
330
1F
100
AcDbEntity
  8
0
  6
Continuous
 62
     7
370
    15
100
AcDbLine
 10
-607.6192692464
 20
-739.9396783339
 30
0.0
 11
-607.6192692464
 21
-741.6568359959
 31
0.0
  0
ARC
  5
295
330
1F
100
AcDbEntity
  8
0
  6
Continuous
 62
     7
370
    15
100
AcDbCircle
 10
-607.4192682927
 20
-739.9396787008
 30
0.0
 40
0.2000000000000455
100
AcDbArc
 50
90.0
 51
180.0
  0
ARC
  5
296
330
1F
100
AcDbEntity
  8
0
  6
Continuous
 62
     7
370
    15
100
AcDbCircle
 10
-577.8192682927
 20
-739.9396787008
 30
0.0
 40
0.2000000000001592
100
AcDbArc
 50
0.0
 51
90.0
  0
ARC
  5
297
330
1F
100
AcDbEntity
  8
0
  6
Continuous
 62
     7
370
    15
100
AcDbCircle
 10
-577.8192682927
 20
-741.6568359883
 30
0.0
 40
0.2000000000001592
100
AcDbArc
 50
315.0
 51
0.0
  0
ARC
  5
298
330
1F
100
AcDbEntity
  8
0
  6
Continuous
 62
     7
370
    15
100
AcDbCircle
 10
-607.4192682927
 20
-741.6568359883
 30
0.0
 40
0.1999999999999695
100
AcDbArc
 50
180.0
 51
225.0
  0
LINE
  5
299
330
1F
100
AcDbEntity
  8
0
  6
Continuous
 62
     7
370
    15
100
AcDbLine
 10
-607.5606890564
 20
-741.7982591915
 30
0.0
 11
-605.6778453832
 21
-743.6810991394
 31
0.0
  0
LINE
  5
29A
330
1F
100
AcDbEntity
  8
0
  6
Continuous
 62
     7
370
    15
100
AcDbLine
 10
-579.5606881921
 20
-743.6810991394
 30
0.0
 11
-577.6778445189
 21
-741.7982591915
 31
0.0
  0
ARC
  5
29B
330
1F
100
AcDbEntity
  8
0
  6
Continuous
 62
     7
370
    15
100
AcDbCircle
 10
-605.5364255802
 20
-743.5396787008
 30
0.0
 40
0.1999999999999695
100
AcDbArc
 50
225.0
 51
270.0
  0
ARC
  5
29C
330
1F
100
AcDbEntity
  8
0
  6
Continuous
 62
     7
370
    15
100
AcDbCircle
 10
-579.7021110052
 20
-743.5396787008
 30
0.0
 40
0.1999999999999695
100
AcDbArc
 50
270.0
 51
315.0
  0
LINE
  5
29D
330
1F
100
AcDbEntity
  8
0
  6
Continuous
 62
     7
370
    15
100
AcDbLine
 10
156.3807293231
 20
-745.1136259961
 30
0.0
 11
156.3807293231
 21
-742.113627367
 31
0.0
  0
LINE
  5
29E
330
1F
100
AcDbEntity
  8
0
  6
Continuous
 62
     7
370
    15
100
AcDbLine
 10
126.3807579334
 20
-742.113627367
 30
0.0
 11
126.3807579334
 21
-745.1136259961
 31
0.0
  0
LINE
  5
29F
330
1F
100
AcDbEntity
  8
0
  6
Continuous
 62
     7
370
    15
100
AcDbLine
 10
126.3807579334
 20
-745.1136259961
 30
0.0
 11
128.3807321842
 21
-747.1136263239
 31
0.0
  0
LINE
  5
2A0
330
1F
100
AcDbEntity
  8
0
  6
Continuous
 62
     7
370
    15
100
AcDbLine
 10
154.3807550723
 20
-747.1136263239
 30
0.0
 11
156.3807293231
 21
-745.1136259961
 31
0.0
  0
LINE
  5
2A1
330
1F
100
AcDbEntity
  8
0
  6
Continuous
 62
     7
370
    15
100
AcDbLine
 10
-573.6192673986
 20
-745.1136259961
 30
0.0
 11
-571.6192707961
 21
-747.1136263239
 31
0.0
  0
LINE
  5
2A2
330
1F
100
AcDbEntity
  8
0
  6
Continuous
 62
     7
370
    15
100
AcDbLine
 10
-545.6192702596
 20
-747.1136263239
 30
0.0
 11
-543.6192662065
 21
-745.1136259961
 31
0.0
  0
LINE
  5
2A3
330
1F
100
AcDbEntity
  8
0
  6
Continuous
 62
     7
370
    15
100
AcDbLine
 10
-543.6192662065
 20
-745.1136259961
 30
0.0
 11
-543.6192662065
 21
-742.113627367
 31
0.0
  0
LINE
  5
2A4
330
1F
100
AcDbEntity
  8
0
  6
Continuous
 62
     7
370
    15
100
AcDbLine
 10
-573.6192673986
 20
-742.113627367
 30
0.0
 11
-573.6192673986
 21
-745.1136259961
 31
0.0
  0
ARC
  5
2A5
330
1F
100
AcDbEntity
  8
0
  6
Continuous
 62
     7
370
    15
100
AcDbCircle
 10
-573.4192682927
 20
-703.19646999
 30
0.0
 40
0.1999999999999695
100
AcDbArc
 50
135.0
 51
180.0
  0
ARC
  5
2A6
330
1F
100
AcDbEntity
  8
0
  6
Continuous
 62
     7
370
    15
100
AcDbCircle
 10
-543.8192682927
 20
-703.19646999
 30
0.0
 40
0.2000000000000455
100
AcDbArc
 50
0.0
 51
45.0
  0
LINE
  5
2A7
330
1F
100
AcDbEntity
  8
0
  6
Continuous
 62
     7
370
    15
100
AcDbLine
 10
-573.6192673986
 20
-703.1964700336
 30
0.0
 11
-573.6192673986
 21
-703.913627066
 31
0.0
  0
LINE
  5
2A8
330
1F
100
AcDbEntity
  8
0
  6
Continuous
 62
     7
370
    15
100
AcDbLine
 10
-543.6192662065
 20
-703.913627066
 30
0.0
 11
-543.6192662065
 21
-703.1964700336
 31
0.0
  0
ARC
  5
2A9
330
1F
100
AcDbEntity
  8
0
  6
Continuous
 62
     7
370
    15
100
AcDbCircle
 10
-543.8192682927
 20
-703.9136272776
 30
0.0
 40
0.2000000000000455
100
AcDbArc
 50
270.0
 51
0.0
  0
ARC
  5
2AA
330
1F
100
AcDbEntity
  8
0
  6
Continuous
 62
     7
370
    15
100
AcDbCircle
 10
-573.4192682927
 20
-703.9136272776
 30
0.0
 40
0.1999999999999318
100
AcDbArc
 50
180.0
 51
270.0
  0
LINE
  5
2AB
330
1F
100
AcDbEntity
  8
0
  6
Continuous
 62
     7
370
    15
100
AcDbLine
 10
-543.6778501218
 20
-703.0550487007
 30
0.0
 11
-545.5606863444
 21
-701.1722059588
 31
0.0
  0
LINE
  5
2AC
330
1F
100
AcDbEntity
  8
0
  6
Continuous
 62
     7
370
    15
100
AcDbLine
 10
-571.6778472607
 20
-701.1722059588
 30
0.0
 11
-573.560690934
 21
-703.0550487007
 31
0.0
  0
ARC
  5
2AD
330
1F
100
AcDbEntity
  8
0
  6
Continuous
 62
     7
370
    15
100
AcDbCircle
 10
-545.7021110052
 20
-701.3136272776
 30
0.0
 40
0.1999999999999695
100
AcDbArc
 50
45.0
 51
90.0
  0
ARC
  5
2AE
330
1F
100
AcDbEntity
  8
0
  6
Continuous
 62
     7
370
    15
100
AcDbCircle
 10
-571.5364255802
 20
-701.3136272776
 30
0.0
 40
0.1999999999999695
100
AcDbArc
 50
90.0
 51
135.0
  0
LINE
  5
2AF
330
1F
100
AcDbEntity
  8
0
  6
Continuous
 62
     7
370
    15
100
AcDbLine
 10
-548.8692656701
 20
-704.6136277395
 30
0.0
 11
-548.8692656701
 21
-704.1136276575
 31
0.0
  0
LINE
  5
2B0
330
1F
100
AcDbEntity
  8
0
  6
Continuous
 62
     7
370
    15
100
AcDbLine
 10
-568.3692679351
 20
-704.1136276575
 30
0.0
 11
-568.3692679351
 21
-704.6136277395
 31
0.0
  0
ARC
  5
2B1
330
1F
100
AcDbEntity
  8
0
  6
Continuous
 62
     7
370
    15
100
AcDbCircle
 10
126.5807317073
 20
-703.19646999
 30
0.0
 40
0.2000000000000498
100
AcDbArc
 50
135.0
 51
180.0
  0
ARC
  5
2B2
330
1F
100
AcDbEntity
  8
0
  6
Continuous
 62
     7
370
    15
100
AcDbCircle
 10
156.1807317073
 20
-703.19646999
 30
0.0
 40
0.2000000000000498
100
AcDbArc
 50
0.0
 51
45.0
  0
LINE
  5
2B3
330
1F
100
AcDbEntity
  8
0
  6
Continuous
 62
     7
370
    15
100
AcDbLine
 10
126.3807579334
 20
-703.1964700336
 30
0.0
 11
126.3807579334
 21
-703.913627066
 31
0.0
  0
LINE
  5
2B4
330
1F
100
AcDbEntity
  8
0
  6
Continuous
 62
     7
370
    15
100
AcDbLine
 10
156.3807293231
 20
-703.913627066
 30
0.0
 11
156.3807293231
 21
-703.1964700336
 31
0.0
  0
ARC
  5
2B5
330
1F
100
AcDbEntity
  8
0
  6
Continuous
 62
     7
370
    15
100
AcDbCircle
 10
156.1807317073
 20
-703.9136272776
 30
0.0
 40
0.1999999999999886
100
AcDbArc
 50
270.0
 51
0.0
  0
ARC
  5
2B6
330
1F
100
AcDbEntity
  8
0
  6
Continuous
 62
     7
370
    15
100
AcDbCircle
 10
126.5807317073
 20
-703.9136272776
 30
0.0
 40
0.2000000000000455
100
AcDbArc
 50
180.0
 51
270.0
  0
LINE
  5
2B7
330
1F
100
AcDbEntity
  8
0
  6
Continuous
 62
     7
370
    15
100
AcDbLine
 10
156.3221379573
 20
-703.0550487007
 30
0.0
 11
154.4392868335
 21
-701.1722059588
 31
0.0
  0
LINE
  5
2B8
330
1F
100
AcDbEntity
  8
0
  6
Continuous
 62
     7
370
    15
100
AcDbLine
 10
128.3221408183
 20
-701.1722059588
 30
0.0
 11
126.4392896945
 21
-703.0550487007
 31
0.0
  0
ARC
  5
2B9
330
1F
100
AcDbEntity
  8
0
  6
Continuous
 62
     7
370
    15
100
AcDbCircle
 10
154.2978889948
 20
-701.3136272776
 30
0.0
 40
0.2000000000000498
100
AcDbArc
 50
45.0
 51
90.0
  0
ARC
  5
2BA
330
1F
100
AcDbEntity
  8
0
  6
Continuous
 62
     7
370
    15
100
AcDbCircle
 10
128.4635744198
 20
-701.3136272776
 30
0.0
 40
0.20000000000007
100
AcDbArc
 50
90.0
 51
135.0
  0
LINE
  5
2BB
330
1F
100
AcDbEntity
  8
0
  6
Continuous
 62
     7
370
    15
100
AcDbLine
 10
151.1307522113
 20
-704.6136277395
 30
0.0
 11
151.1307522113
 21
-704.1136276575
 31
0.0
  0
LINE
  5
2BC
330
1F
100
AcDbEntity
  8
0
  6
Continuous
 62
     7
370
    15
100
AcDbLine
 10
131.6307350452
 20
-704.1136276575
 30
0.0
 11
131.6307350452
 21
-704.6136277395
 31
0.0
  0
LINE
  5
2BD
330
1F
100
AcDbEntity
  8
0
  6
Continuous
 62
     7
370
    15
100
AcDbLine
 10
170.3807278926
 20
-725.6136274564
 30
0.0
 11
170.3807278926
 21
-724.1136281418
 31
0.0
  0
LINE
  5
2BE
330
1F
100
AcDbEntity
  8
0
  6
Continuous
 62
     7
370
    15
100
AcDbLine
 10
112.3807593639
 20
-724.1136281418
 30
0.0
 11
112.3807593639
 21
-725.6136274564
 31
0.0
  0
LINE
  5
2BF
330
1F
100
AcDbEntity
  8
0
  6
Continuous
 62
     7
370
    15
100
AcDbLine
 10
-587.6192659681
 20
-704.6136277395
 30
0.0
 11
-587.6192659681
 21
-706.113627054
 31
0.0
  0
LINE
  5
2C0
330
1F
100
AcDbEntity
  8
0
  6
Continuous
 62
     7
370
    15
100
AcDbLine
 10
-529.6192750876
 20
-706.113627054
 30
0.0
 11
-529.6192750876
 21
-704.6136277395
 31
0.0
  0
LINE
  5
2C1
330
1F
100
AcDbEntity
  8
0
  6
Continuous
 62
     7
370
    15
100
AcDbLine
 10
-529.6192750876
 20
-725.6136274564
 30
0.0
 11
-529.6192750876
 21
-724.1136281418
 31
0.0
  0
LINE
  5
2C2
330
1F
100
AcDbEntity
  8
0
  6
Continuous
 62
     7
370
    15
100
AcDbLine
 10
-587.6192659681
 20
-724.1136281418
 30
0.0
 11
-587.6192659681
 21
-725.6136274564
 31
0.0
  0
LINE
  5
2C3
330
1F
100
AcDbEntity
  8
0
  6
Continuous
 62
     7
370
    15
100
AcDbLine
 10
112.3807593639
 20
-704.6136277395
 30
0.0
 11
112.3807593639
 21
-706.113627054
 31
0.0
  0
LINE
  5
2C4
330
1F
100
AcDbEntity
  8
0
  6
Continuous
 62
     7
370
    15
100
AcDbLine
 10
170.3807278926
 20
-706.113627054
 30
0.0
 11
170.3807278926
 21
-704.6136277395
 31
0.0
  0
LINE
  5
2C5
330
1F
100
AcDbEntity
  8
0
  6
Continuous
 62
     7
370
    15
100
AcDbLine
 10
-529.6192750876
 20
-707.1340557786
 30
0.0
 11
-529.6192750876
 21
-706.113627054
 31
0.0
  0
LINE
  5
2C6
330
1F
100
AcDbEntity
  8
0
  6
Continuous
 62
     7
370
    15
100
AcDbLine
 10
-587.6192659681
 20
-706.113627054
 30
0.0
 11
-587.6192659681
 21
-707.1340557786
 31
0.0
  0
ARC
  5
2C7
330
1F
100
AcDbEntity
  8
0
  6
Continuous
 62
     7
370
    15
100
AcDbCircle
 10
-520.0192682927
 20
-715.1396787008
 30
0.0
 40
12.5
100
AcDbArc
 50
140.1746287392
 51
219.8253712608
  0
ARC
  5
2C8
330
1F
100
AcDbEntity
  8
0
  6
Continuous
 62
     7
370
    15
100
AcDbCircle
 10
-597.2192682927
 20
-715.1396787008
 30
0.0
 40
12.5
100
AcDbArc
 50
320.1746287392
 51
39.8253712608
  0
LINE
  5
2C9
330
1F
100
AcDbEntity
  8
0
  6
Continuous
 62
     7
370
    15
100
AcDbLine
 10
-529.6192750876
 20
-724.1136281418
 30
0.0
 11
-529.6192750876
 21
-723.1453022587
 31
0.0
  0
LINE
  5
2CA
330
1F
100
AcDbEntity
  8
0
  6
Continuous
 62
     7
370
    15
100
AcDbLine
 10
-587.6192659681
 20
-723.1453022587
 30
0.0
 11
-587.6192659681
 21
-724.1136281418
 31
0.0
  0
LINE
  5
2CB
330
1F
100
AcDbEntity
  8
0
  6
Continuous
 62
     7
370
    15
100
AcDbLine
 10
170.3807278926
 20
-707.1340557786
 30
0.0
 11
170.3807278926
 21
-706.113627054
 31
0.0
  0
LINE
  5
2CC
330
1F
100
AcDbEntity
  8
0
  6
Continuous
 62
     7
370
    15
100
AcDbLine
 10
112.3807593639
 20
-706.113627054
 30
0.0
 11
112.3807593639
 21
-707.1340557786
 31
0.0
  0
ARC
  5
2CD
330
1F
100
AcDbEntity
  8
0
  6
Continuous
 62
     7
370
    15
100
AcDbCircle
 10
179.9807317073
 20
-715.1396787008
 30
0.0
 40
12.50000000000001
100
AcDbArc
 50
140.1746287392
 51
219.8253712608
  0
ARC
  5
2CE
330
1F
100
AcDbEntity
  8
0
  6
Continuous
 62
     7
370
    15
100
AcDbCircle
 10
102.7807317073
 20
-715.1396787008
 30
0.0
 40
12.50000000000001
100
AcDbArc
 50
320.1746287392
 51
39.8253712608
  0
LINE
  5
2CF
330
1F
100
AcDbEntity
  8
0
  6
Continuous
 62
     7
370
    15
100
AcDbLine
 10
170.3807278926
 20
-724.1136281418
 30
0.0
 11
170.3807278926
 21
-723.1453022587
 31
0.0
  0
LINE
  5
2D0
330
1F
100
AcDbEntity
  8
0
  6
Continuous
 62
     7
370
    15
100
AcDbLine
 10
112.3807593639
 20
-723.1453022587
 30
0.0
 11
112.3807593639
 21
-724.1136281418
 31
0.0
  0
LINE
  5
2D1
330
1F
100
AcDbEntity
  8
0
  6
Continuous
 62
     7
370
    15
100
AcDbLine
 10
-543.6192662065
 20
-731.8136281001
 30
0.0
 11
-543.6192662065
 21
-726.41362796
 31
0.0
  0
LINE
  5
2D2
330
1F
100
AcDbEntity
  8
0
  6
Continuous
 62
     7
370
    15
100
AcDbLine
 10
-573.6192673986
 20
-726.41362796
 30
0.0
 11
-573.6192673986
 21
-731.8136281001
 31
0.0
  0
LINE
  5
2D3
330
1F
100
AcDbEntity
  8
0
  6
Continuous
 62
     7
370
    15
100
AcDbLine
 10
-543.6192662065
 20
-726.41362796
 30
0.0
 11
-543.9192712848
 21
-726.113626607
 31
0.0
  0
LINE
  5
2D4
330
1F
100
AcDbEntity
  8
0
  6
Continuous
 62
     7
370
    15
100
AcDbLine
 10
-573.3192697709
 20
-726.113626607
 30
0.0
 11
-573.6192673986
 21
-726.41362796
 31
0.0
  0
LINE
  5
2D5
330
1F
100
AcDbEntity
  8
0
  6
Continuous
 62
     7
370
    15
100
AcDbLine
 10
-573.6192673986
 20
-731.8136281001
 30
0.0
 11
-573.3192697709
 21
-732.1136257278
 31
0.0
  0
LINE
  5
2D6
330
1F
100
AcDbEntity
  8
0
  6
Continuous
 62
     7
370
    15
100
AcDbLine
 10
-543.9192712848
 20
-732.1136257278
 30
0.0
 11
-543.6192662065
 21
-731.8136281001
 31
0.0
  0
LINE
  5
2D7
330
1F
100
AcDbEntity
  8
0
  6
Continuous
 62
     7
370
    15
100
AcDbLine
 10
-548.8692656701
 20
-726.113626607
 30
0.0
 11
-548.8692656701
 21
-725.6136274564
 31
0.0
  0
LINE
  5
2D8
330
1F
100
AcDbEntity
  8
0
  6
Continuous
 62
     7
370
    15
100
AcDbLine
 10
-568.3692679351
 20
-725.6136274564
 30
0.0
 11
-568.3692679351
 21
-726.113626607
 31
0.0
  0
LINE
  5
2D9
330
1F
100
AcDbEntity
  8
0
  6
Continuous
 62
     7
370
    15
100
AcDbLine
 10
156.3807293231
 20
-731.8136281001
 30
0.0
 11
156.3807293231
 21
-726.41362796
 31
0.0
  0
LINE
  5
2DA
330
1F
100
AcDbEntity
  8
0
  6
Continuous
 62
     7
370
    15
100
AcDbLine
 10
126.3807579334
 20
-726.41362796
 30
0.0
 11
126.3807579334
 21
-731.8136281001
 31
0.0
  0
LINE
  5
2DB
330
1F
100
AcDbEntity
  8
0
  6
Continuous
 62
     7
370
    15
100
AcDbLine
 10
156.3807293231
 20
-726.41362796
 30
0.0
 11
156.080739146
 21
-726.113626607
 31
0.0
  0
LINE
  5
2DC
330
1F
100
AcDbEntity
  8
0
  6
Continuous
 62
     7
370
    15
100
AcDbLine
 10
126.6807481105
 20
-726.113626607
 30
0.0
 11
126.3807579334
 21
-726.41362796
 31
0.0
  0
LINE
  5
2DD
330
1F
100
AcDbEntity
  8
0
  6
Continuous
 62
     7
370
    15
100
AcDbLine
 10
126.3807579334
 20
-731.8136281001
 30
0.0
 11
126.6807481105
 21
-732.1136257278
 31
0.0
  0
LINE
  5
2DE
330
1F
100
AcDbEntity
  8
0
  6
Continuous
 62
     7
370
    15
100
AcDbLine
 10
156.080739146
 20
-732.1136257278
 30
0.0
 11
156.3807293231
 21
-731.8136281001
 31
0.0
  0
LINE
  5
2DF
330
1F
100
AcDbEntity
  8
0
  6
Continuous
 62
     7
370
    15
100
AcDbLine
 10
151.1307522113
 20
-726.113626607
 30
0.0
 11
151.1307522113
 21
-725.6136274564
 31
0.0
  0
LINE
  5
2E0
330
1F
100
AcDbEntity
  8
0
  6
Continuous
 62
     7
370
    15
100
AcDbLine
 10
131.6307350452
 20
-725.6136274564
 30
0.0
 11
131.6307350452
 21
-726.113626607
 31
0.0
  0
LINE
  5
2E1
330
1F
100
AcDbEntity
  8
0
  6
Continuous
 62
     7
370
    15
100
AcDbLine
 10
1005.9306784923
 20
-727.6396787393
 30
0.0
 11
1005.9306784923
 21
-728.3273785042
 31
0.0
  0
LINE
  5
2E2
330
1F
100
AcDbEntity
  8
0
  6
Continuous
 62
     7
370
    15
100
AcDbLine
 10
1020.8307668025
 20
-728.3273785042
 30
0.0
 11
1020.8307668025
 21
-727.6396787393
 31
0.0
  0
LINE
  5
2E3
330
1F
100
AcDbEntity
  8
0
  6
Continuous
 62
     7
370
    15
100
AcDbLine
 10
1005.9306784923
 20
-728.3273785042
 30
0.0
 11
1006.9307252223
 21
-729.3273805308
 31
0.0
  0
LINE
  5
2E4
330
1F
100
AcDbEntity
  8
0
  6
Continuous
 62
     7
370
    15
100
AcDbLine
 10
1019.8307200725
 20
-729.3273805308
 30
0.0
 11
1020.8307668025
 21
-728.3273785042
 31
0.0
  0
LINE
  5
2E5
330
1F
100
AcDbEntity
  8
0
  6
Continuous
 62
     7
370
    15
100
AcDbLine
 10
-21.0692719166
 20
-727.6396787393
 30
0.0
 11
-21.0692719166
 21
-728.3273785042
 31
0.0
  0
LINE
  5
2E6
330
1F
100
AcDbEntity
  8
0
  6
Continuous
 62
     7
370
    15
100
AcDbLine
 10
-6.169243211
 20
-728.3273785042
 30
0.0
 11
-6.169243211
 21
-727.6396787393
 31
0.0
  0
LINE
  5
2E7
330
1F
100
AcDbEntity
  8
0
  6
Continuous
 62
     7
370
    15
100
AcDbLine
 10
-21.0692719166
 20
-728.3273785042
 30
0.0
 11
-20.0692847912
 21
-729.3273805308
 31
0.0
  0
LINE
  5
2E8
330
1F
100
AcDbEntity
  8
0
  6
Continuous
 62
     7
370
    15
100
AcDbLine
 10
-7.1692899411
 20
-729.3273805308
 30
0.0
 11
-6.169243211
 21
-728.3273785042
 31
0.0
  0
LINE
  5
2E9
330
1F
100
AcDbEntity
  8
0
  6
Continuous
 62
     7
370
    15
100
AcDbLine
 10
492.9307862575
 20
-727.6396787393
 30
0.0
 11
492.9307862575
 21
-728.3273785042
 31
0.0
  0
LINE
  5
2EA
330
1F
100
AcDbEntity
  8
0
  6
Continuous
 62
     7
370
    15
100
AcDbLine
 10
507.8307553584
 20
-728.3273785042
 30
0.0
 11
507.8307553584
 21
-727.6396787393
 31
0.0
  0
LINE
  5
2EB
330
1F
100
AcDbEntity
  8
0
  6
Continuous
 62
     7
370
    15
100
AcDbLine
 10
492.9307862575
 20
-728.3273785042
 30
0.0
 11
493.9307137782
 21
-729.3273805308
 31
0.0
  0
LINE
  5
2EC
330
1F
100
AcDbEntity
  8
0
  6
Continuous
 62
     7
370
    15
100
AcDbLine
 10
506.8307086284
 20
-729.3273805308
 30
0.0
 11
507.8307553584
 21
-728.3273785042
 31
0.0
  0
LINE
  5
2ED
330
1F
100
AcDbEntity
  8
0
  6
Continuous
 62
     7
370
    15
100
AcDbLine
 10
-534.0692684596
 20
-727.6396787393
 30
0.0
 11
-534.0692684596
 21
-728.3273785042
 31
0.0
  0
LINE
  5
2EE
330
1F
100
AcDbEntity
  8
0
  6
Continuous
 62
     7
370
    15
100
AcDbLine
 10
-519.1692695563
 20
-728.3273785042
 30
0.0
 11
-519.1692695563
 21
-727.6396787393
 31
0.0
  0
LINE
  5
2EF
330
1F
100
AcDbEntity
  8
0
  6
Continuous
 62
     7
370
    15
100
AcDbLine
 10
-534.0692684596
 20
-728.3273785042
 30
0.0
 11
-533.069266433
 21
-729.3273805308
 31
0.0
  0
LINE
  5
2F0
330
1F
100
AcDbEntity
  8
0
  6
Continuous
 62
     7
370
    15
100
AcDbLine
 10
-520.1692715829
 20
-729.3273805308
 30
0.0
 11
-519.1692695563
 21
-728.3273785042
 31
0.0
  0
LINE
  5
2F1
330
1F
100
AcDbEntity
  8
0
  6
Continuous
 62
     7
370
    15
100
AcDbLine
 10
988.3806868846
 20
-681.6396786498
 30
0.0
 11
988.3806868846
 21
-683.6396789777
 31
0.0
  0
LINE
  5
2F2
330
1F
100
AcDbEntity
  8
0
  6
Continuous
 62
     7
370
    15
100
AcDbLine
 10
1038.3807584102
 20
-683.6396789777
 30
0.0
 11
1038.3807584102
 21
-681.6396786498
 31
0.0
  0
LINE
  5
2F3
330
1F
100
AcDbEntity
  8
0
  6
Continuous
 62
     7
370
    15
100
AcDbLine
 10
988.3806868846
 20
-683.6396789777
 30
0.0
 11
989.3807336147
 21
-684.6396791416
 31
0.0
  0
LINE
  5
2F4
330
1F
100
AcDbEntity
  8
0
  6
Continuous
 62
     7
370
    15
100
AcDbLine
 10
1037.3807116802
 20
-684.6396791416
 30
0.0
 11
1038.3807584102
 21
-683.6396789777
 31
0.0
  0
LINE
  5
2F5
330
1F
100
AcDbEntity
  8
0
  6
Continuous
 62
     7
370
    15
100
AcDbLine
 10
-551.6192675178
 20
-681.6396786498
 30
0.0
 11
-551.6192675178
 21
-683.6396789777
 31
0.0
  0
LINE
  5
2F6
330
1F
100
AcDbEntity
  8
0
  6
Continuous
 62
     7
370
    15
100
AcDbLine
 10
-501.6192630475
 20
-683.6396789777
 30
0.0
 11
-501.6192630475
 21
-681.6396786498
 31
0.0
  0
LINE
  5
2F7
330
1F
100
AcDbEntity
  8
0
  6
Continuous
 62
     7
370
    15
100
AcDbLine
 10
-551.6192675178
 20
-683.6396789777
 30
0.0
 11
-550.6192654913
 21
-684.6396791416
 31
0.0
  0
LINE
  5
2F8
330
1F
100
AcDbEntity
  8
0
  6
Continuous
 62
     7
370
    15
100
AcDbLine
 10
-502.619265074
 20
-684.6396791416
 30
0.0
 11
-501.6192630475
 21
-683.6396789777
 31
0.0
  0
LINE
  5
2F9
330
1F
100
AcDbEntity
  8
0
  6
Continuous
 62
     7
370
    15
100
AcDbLine
 10
475.3806754405
 20
-681.6396786498
 30
0.0
 11
475.3806754405
 21
-683.6396789777
 31
0.0
  0
LINE
  5
2FA
330
1F
100
AcDbEntity
  8
0
  6
Continuous
 62
     7
370
    15
100
AcDbLine
 10
525.3807469661
 20
-683.6396789777
 30
0.0
 11
525.3807469661
 21
-681.6396786498
 31
0.0
  0
LINE
  5
2FB
330
1F
100
AcDbEntity
  8
0
  6
Continuous
 62
     7
370
    15
100
AcDbLine
 10
475.3806754405
 20
-683.6396789777
 30
0.0
 11
476.3807221706
 21
-684.6396791416
 31
0.0
  0
LINE
  5
2FC
330
1F
100
AcDbEntity
  8
0
  6
Continuous
 62
     7
370
    15
100
AcDbLine
 10
524.3807002361
 20
-684.6396791416
 30
0.0
 11
525.3807469661
 21
-683.6396789777
 31
0.0
  0
LINE
  5
2FD
330
1F
100
AcDbEntity
  8
0
  6
Continuous
 62
     7
370
    15
100
AcDbLine
 10
-38.6192635243
 20
-681.6396786498
 30
0.0
 11
-38.6192635243
 21
-683.6396789777
 31
0.0
  0
LINE
  5
2FE
330
1F
100
AcDbEntity
  8
0
  6
Continuous
 62
     7
370
    15
100
AcDbLine
 10
11.3807483966
 20
-683.6396789777
 30
0.0
 11
11.3807483966
 21
-681.6396786498
 31
0.0
  0
LINE
  5
2FF
330
1F
100
AcDbEntity
  8
0
  6
Continuous
 62
     7
370
    15
100
AcDbLine
 10
-38.6192635243
 20
-683.6396789777
 30
0.0
 11
-37.6192763989
 21
-684.6396791416
 31
0.0
  0
LINE
  5
300
330
1F
100
AcDbEntity
  8
0
  6
Continuous
 62
     7
370
    15
100
AcDbLine
 10
10.3807612712
 20
-684.6396791416
 30
0.0
 11
11.3807483966
 21
-683.6396789777
 31
0.0
  0
LINE
  5
301
330
1F
100
AcDbEntity
  8
0
  6
Continuous
 62
     7
370
    15
100
AcDbLine
 10
-656.6192681977
 20
-727.6396787393
 30
0.0
 11
-656.6192681977
 21
-702.6396788324
 31
0.0
  0
LWPOLYLINE
  5
302
330
1F
100
AcDbEntity
  8
0
  6
Continuous
 62
     7
370
    15
100
AcDbPolyline
 90
       13
 70
   128
 43
0.0
 10
1005.8627291972
 20
-727.6205754506
 10
1006.0999556835
 20
-727.4789063858
 10
1006.9565936382
 20
-726.9936612474
 10
1008.4597035701
 20
-726.2510972696
 10
1010.7237263973
 20
-725.4502045589
 10
1012.8034516628
 20
-725.1186965632
 10
1014.9582787807
 20
-725.226109721
 10
1016.8408318813
 20
-725.6857528018
 10
1018.66497243
 20
-726.4166733848
 10
1020.201460963
 20
-727.2131851541
 10
1020.9002658183
 20
-727.6213056075
 10
1020.9307833965
 20
-727.6396787393
 10
1020.9307833965
 20
-727.6396787393
  0
LWPOLYLINE
  5
303
330
1F
100
AcDbEntity
  8
0
  6
Continuous
 62
     7
370
    15
100
AcDbPolyline
 90
       13
 70
   128
 43
0.0
 10
-21.1372808163
 20
-727.6205754506
 10
-20.8999947255
 20
-727.4789063858
 10
-20.0434163754
 20
-726.9936612474
 10
-18.5402468388
 20
-726.2510972696
 10
-16.2762240117
 20
-725.4502045589
 10
-14.1965583508
 20
-725.1186965632
 10
-12.0417312329
 20
-725.226109721
 10
-10.1591781323
 20
-725.6857528018
 10
-8.3350375836
 20
-726.4166733848
 10
-6.7985490506
 20
-727.2131851541
 10
-6.0997441952
 20
-727.6213056075
 10
-6.0692862218
 20
-727.6396787393
 10
-6.0692862218
 20
-727.6396787393
  0
SPLINE
  5
304
330
1F
100
AcDbEntity
  8
0
  6
Continuous
 62
     7
370
    15
100
AcDbSpline
210
0.0
220
0.0
230
1.0
 70
     8
 71
     3
 72
    11
 73
     7
 74
     0
 42
0.00000001
 43
0.00000001
 40
0.0
 40
0.0
 40
0.0
 40
0.0
 40
0.2319972353198426
 40
0.4848991721182347
 40
0.7641985638151138
 40
0.9999999999999999
 40
0.9999999999999999
 40
0.9999999999999999
 40
0.9999999999999999
 10
-534.1373071615863
 20
-727.6205754506005
 30
0.0
 10
-534.0974004364426
 20
-727.5953568330389
 30
0.0
 10
-534.0139910890966
 20
-727.5426472101819
 30
0.0
 10
-533.0729653639752
 20
-727.0050886120472
 30
0.0
 10
-531.7305788048092
 20
-726.2731643221953
 30
0.0
 10
-530.441500970743
 20
-725.8482040278661
 30
0.0
 10
-529.8513904755282
 20
-725.6536668764962
 30
0.0
  0
SPLINE
  5
305
330
1F
100
AcDbEntity
  8
0
  6
Continuous
 62
     7
370
    15
100
AcDbSpline
210
0.0
220
0.0
230
1.0
 70
     8
 71
     3
 72
    15
 73
    11
 74
     0
 42
0.00000001
 43
0.00000001
 40
0.0
 40
0.0
 40
0.0
 40
0.0
 40
0.0272757129752167
 40
0.168362218560312
 40
0.309881268437726
 40
0.4441357740810374
 40
0.5989935777229357
 40
0.7798916628085647
 40
0.9555982730211056
 40
0.9999999999999999
 40
0.9999999999999999
 40
0.9999999999999999
 40
0.9999999999999999
 10
-529.6192750876116
 20
-725.5715540277375
 30
0.0
 10
-529.5065670981377
 20
-725.5299112099277
 30
0.0
 10
-528.8108651315371
 20
-725.2728665196591
 30
0.0
 10
-527.1856591413215
 20
-725.0507444630351
 30
0.0
 10
-525.0506265025717
 20
-725.1522690763694
 30
0.0
 10
-523.0130066296339
 20
-725.6845051869775
 30
0.0
 10
-521.1561649675506
 20
-726.4667955113649
 30
0.0
 10
-519.6797466214683
 20
-727.2695249621887
 30
0.0
 10
-519.1068681643469
 20
-727.6170917730803
 30
0.0
 10
-519.0755796017852
 20
-727.6358871999448
 30
0.0
 10
-519.0692678635287
 20
-727.639678739251
 30
0.0
  0
LWPOLYLINE
  5
306
330
1F
100
AcDbEntity
  8
0
  6
Continuous
 62
     7
370
    15
100
AcDbPolyline
 90
       13
 70
   128
 43
0.0
 10
492.8627177532
 20
-727.6205754506
 10
493.0999442394
 20
-727.4789063858
 10
493.9565821941
 20
-726.9936612474
 10
495.459692126
 20
-726.2510972696
 10
497.7237149532
 20
-725.4502045589
 10
499.8034402187
 20
-725.1186965632
 10
501.9582673366
 20
-725.226109721
 10
503.8408204372
 20
-725.6857528018
 10
505.6649609859
 20
-726.4166733848
 10
507.2014495189
 20
-727.2131851541
 10
507.9002543742
 20
-727.6213056075
 10
507.9307719524
 20
-727.6396787393
 10
507.9307719524
 20
-727.6396787393
  0
LINE
  5
307
330
1F
100
AcDbEntity
  8
0
  6
Continuous
 62
     7
370
    15
100
AcDbLine
 10
1143.3807774837
 20
-727.6396787393
 30
0.0
 11
1143.3807774837
 21
-702.6396788324
 31
0.0
  0
LINE
  5
308
330
1F
100
AcDbEntity
  8
0
  6
Continuous
 62
     7
370
    15
100
AcDbLine
 10
1099.3807479198
 20
-731.7396773624
 30
0.0
 11
1059.3807860668
 21
-731.7396773624
 31
0.0
  0
LINE
  5
309
330
1F
100
AcDbEntity
  8
0
  6
Continuous
 62
     7
370
    15
100
AcDbLine
 10
1099.3807479198
 20
-739.7396786737
 30
0.0
 11
1059.3807860668
 21
-739.7396786737
 31
0.0
  0
LINE
  5
30A
330
1F
100
AcDbEntity
  8
0
  6
Continuous
 62
     7
370
    15
100
AcDbLine
 10
-573.6192673986
 20
-739.7396786737
 30
0.0
 11
-612.6192682033
 21
-739.7396786737
 31
0.0
  0
LINE
  5
30B
330
1F
100
AcDbEntity
  8
0
  6
Continuous
 62
     7
370
    15
100
AcDbLine
 10
-573.6192673986
 20
-731.7396773624
 30
0.0
 11
-612.6192682033
 21
-731.7396773624
 31
0.0
  0
LINE
  5
30C
330
1F
100
AcDbEntity
  8
0
  6
Continuous
 62
     7
370
    15
100
AcDbLine
 10
1095.3806802089
 20
-700.9396789263
 30
0.0
 11
1063.3807345683
 21
-700.9396789263
 31
0.0
  0
LINE
  5
30D
330
1F
100
AcDbEntity
  8
0
  6
Continuous
 62
     7
370
    15
100
AcDbLine
 10
1065.1806756313
 20
-699.1396787243
 30
0.0
 11
1093.580739146
 21
-699.1396787243
 31
0.0
  0
SPLINE
  5
30E
330
1F
100
AcDbEntity
  8
0
  6
Continuous
 62
     7
370
    15
100
AcDbSpline
210
0.0
220
0.0
230
1.0
 70
     8
 71
     3
 72
    22
 73
    18
 74
     0
 42
0.00000001
 43
0.00000001
 40
0.0
 40
0.0
 40
0.0
 40
0.0
 40
0.042448319512254
 40
0.1226355124839858
 40
0.2089114251380341
 40
0.3120077206448029
 40
0.3621946018358959
 40
0.4135778164782459
 40
0.4821778399019963
 40
0.5511342998699209
 40
0.6347833446305348
 40
0.6944713820710451
 40
0.7558523268613508
 40
0.8161946096385101
 40
0.8787130095286683
 40
0.9629714062072643
 40
1.0
 40
1.0
 40
1.0
 40
1.0
 10
1095.279829149945
 20
-727.6112957524671
 30
0.0
 10
1095.299796224116
 20
-727.6367634874431
 30
0.0
 10
1095.357482191474
 20
-727.710341164168
 30
0.0
 10
1094.641328208589
 20
-726.7970053561314
 30
0.0
 10
1093.308844196351
 20
-725.0137796482757
 30
0.0
 10
1091.796506494551
 20
-722.77307353519
 30
0.0
 10
1090.584377438329
 20
-720.5305339325167
 30
0.0
 10
1089.713057718279
 20
-718.4655703185219
 30
0.0
 10
1089.124312790845
 20
-715.8940595155764
 30
0.0
 10
1089.366837025599
 20
-712.7600144972339
 30
0.0
 10
1090.398722984849
 20
-710.0710547366107
 30
0.0
 10
1091.620600221941
 20
-707.8382285804065
 30
0.0
 10
1092.73834898942
 20
-706.103941293844
 30
0.0
 10
1093.793919183127
 20
-704.6148313530069
 30
0.0
 10
1094.770036356476
 20
-703.3169279756083
 30
0.0
 10
1095.316135802135
 20
-702.6216634533807
 30
0.0
 10
1095.365583851644
 20
-702.558854072566
 30
0.0
 10
1095.380680208905
 20
-702.5396785365953
 30
0.0
  0
SPLINE
  5
30F
330
1F
100
AcDbEntity
  8
0
  6
Continuous
 62
     7
370
    15
100
AcDbSpline
210
0.0
220
0.0
230
1.0
 70
     8
 71
     3
 72
    22
 73
    18
 74
     0
 42
0.00000001
 43
0.00000001
 40
0.0
 40
0.0
 40
0.0
 40
0.0
 40
0.087077773086432
 40
0.1738036411297807
 40
0.2313476674579324
 40
0.2905522376023668
 40
0.3488895859976327
 40
0.408977677138794
 40
0.4779434588970157
 40
0.5473134089530675
 40
0.629179496134453
 40
0.6881373546355048
 40
0.7487580955791516
 40
0.8086822743389152
 40
0.8706631279043554
 40
0.9564113887989365
 40
1.0
 40
1.0
 40
1.0
 40
1.0
 10
1063.380734568341
 20
-702.5396785365953
 30
0.0
 10
1063.463369575357
 20
-702.6438160457667
 30
0.0
 10
1063.628305638777
 20
-702.8516702160176
 30
0.0
 10
1064.674967449087
 20
-704.2130461005996
 30
0.0
 10
1065.801491495758
 20
-705.7839244402132
 30
0.0
 10
1066.872646976141
 20
-707.4041703200119
 30
0.0
 10
1067.953124671656
 20
-709.2826170780625
 30
0.0
 10
1068.957988153441
 20
-711.5167020032245
 30
0.0
 10
1069.621218077551
 20
-714.1970008594052
 30
0.0
 10
1069.439050299473
 20
-717.3251593214258
 30
0.0
 10
1068.452039276028
 20
-720.0127382209496
 30
0.0
 10
1067.261479142127
 20
-722.2382126158639
 30
0.0
 10
1066.15460010214
 20
-723.981142255236
 30
0.0
 10
1065.089862802682
 20
-725.4967979097197
 30
0.0
 10
1064.095489328356
 20
-726.8283452986859
 30
0.0
 10
1063.406903314328
 20
-727.7066347751542
 30
0.0
 10
1063.462760765622
 20
-727.6353274655089
 30
0.0
 10
1063.481585627301
 20
-727.6112957524671
 30
0.0
  0
SPLINE
  5
310
330
1F
100
AcDbEntity
  8
0
  6
Continuous
 62
     7
370
    15
100
AcDbSpline
210
0.0
220
0.0
230
1.0
 70
     8
 71
     3
 72
    10
 73
     6
 74
     0
 42
0.00000001
 43
0.00000001
 40
0.0
 40
0.0
 40
0.0
 40
0.0
 40
0.2371444569449863
 40
0.6851242926397828
 40
0.9999999999999999
 40
0.9999999999999999
 40
0.9999999999999999
 40
0.9999999999999999
 10
-576.7201692407298
 20
-727.6112957524671
 30
0.0
 10
-576.7011268549248
 20
-727.6351298114091
 30
0.0
 10
-576.6461122816438
 20
-727.7039878103845
 30
0.0
 10
-577.2297352441348
 20
-726.9742485805884
 30
0.0
 10
-577.9328524162464
 20
-726.0111537773068
 30
0.0
 10
-578.2230705564189
 20
-725.6136274563684
 30
0.0
  0
SPLINE
  5
311
330
1F
100
AcDbEntity
  8
0
  6
Continuous
 62
     7
370
    15
100
AcDbSpline
210
0.0
220
0.0
230
1.0
 70
     8
 71
     3
 72
    10
 73
     6
 74
     0
 42
0.00000001
 43
0.00000001
 40
0.0
 40
0.0
 40
0.0
 40
0.0
 40
0.3258668895889891
 40
0.7941891158210508
 40
1.0
 40
1.0
 40
1.0
 40
1.0
 10
-578.194527382152
 20
-704.6136277394904
 30
0.0
 10
-577.9062838345478
 20
-704.2247482996098
 30
0.0
 10
-577.2037887498166
 20
-703.2769876390856
 30
0.0
 10
-576.6854101337074
 20
-702.624456994484
 30
0.0
 10
-576.6347365315368
 20
-702.5595074455766
 30
0.0
 10
-576.6192660277056
 20
-702.5396785365953
 30
0.0
  0
SPLINE
  5
312
330
1F
100
AcDbEntity
  8
0
  6
Continuous
 62
     7
370
    15
100
AcDbSpline
210
0.0
220
0.0
230
1.0
 70
     8
 71
     3
 72
    22
 73
    18
 74
     0
 42
0.00000001
 43
0.00000001
 40
0.0
 40
0.0
 40
0.0
 40
0.0
 40
0.087077761569607
 40
0.1738038466755083
 40
0.2313481938797203
 40
0.2905521466967761
 40
0.3488893421791229
 40
0.4089778387618718
 40
0.4779436857960283
 40
0.5473137237998241
 40
0.6291798655174823
 40
0.6881376889931705
 40
0.7487575738484309
 40
0.808681939450235
 40
0.8706630809709309
 40
0.9564113612324086
 40
1.0
 40
1.0
 40
1.0
 40
1.0
 10
-608.6192675476241
 20
-702.5396785365953
 30
0.0
 10
-608.5366438942397
 20
-702.6438159257378
 30
0.0
 10
-608.3717302753575
 20
-702.8516701297215
 30
0.0
 10
-607.3250526843476
 20
-704.2130523089817
 30
0.0
 10
-606.1984665378874
 20
-705.7839089501456
 30
0.0
 10
-605.1274014487101
 20
-707.4041786974839
 30
0.0
 10
-604.0469415247156
 20
-709.2826282585236
 30
0.0
 10
-603.0420191165275
 20
-711.5166918861291
 30
0.0
 10
-602.3787856277572
 20
-714.1970031885443
 30
0.0
 10
-602.561011862801
 20
-717.3251570271025
 30
0.0
 10
-603.5479980449917
 20
-720.0127397265531
 30
0.0
 10
-604.7385787685154
 20
-722.2381952832884
 30
0.0
 10
-605.8453327711197
 20
-723.98116156561
 30
0.0
 10
-606.9101096669973
 20
-725.4967964482221
 30
0.0
 10
-607.9045137124501
 20
-726.828342719092
 30
0.0
 10
-608.593108635106
 20
-727.7066349940624
 30
0.0
 10
-608.537204825018
 20
-727.6353275255331
 30
0.0
 10
-608.5183643345999
 20
-727.6112957524671
 30
0.0
  0
LINE
  5
313
330
1F
100
AcDbEntity
  8
0
  6
Continuous
 62
     7
370
    15
100
AcDbLine
 10
-576.6192660277
 20
-700.9396789263
 30
0.0
 11
-608.6192675476
 21
-700.9396789263
 31
0.0
  0
LINE
  5
314
330
1F
100
AcDbEntity
  8
0
  6
Continuous
 62
     7
370
    15
100
AcDbLine
 10
-606.8192668801
 20
-699.1396787243
 30
0.0
 11
-578.4192666953
 21
-699.1396787243
 31
0.0
  0
LWPOLYLINE
  5
315
330
1F
100
AcDbEntity
  8
0
  6
Continuous
 62
     7
370
    15
100
AcDbPolyline
 90
       13
 70
   128
 43
0.0
 10
-6.1471298878
 20
-702.6562144647
 10
-6.3947275822
 20
-702.8029941621
 10
-7.2560146992
 20
-703.2867943535
 10
-8.7627009099
 20
-704.0227492007
 10
-11.0229090398
 20
-704.8081186267
 10
-13.0929187482
 20
-705.1258346664
 10
-15.2312353795
 20
-705.0105900171
 10
-17.1050265973
 20
-704.5495611283
 10
-18.9169481938
 20
-703.8230857479
 10
-20.4258397763
 20
-703.0430248606
 10
-21.0944846814
 20
-702.6545236486
 10
-21.1192802136
 20
-702.6396788324
 10
-21.1192802136
 20
-702.6396788324
  0
LWPOLYLINE
  5
316
330
1F
100
AcDbEntity
  8
0
  6
Continuous
 62
     7
370
    15
100
AcDbPolyline
 90
       13
 70
   128
 43
0.0
 10
1020.8528205211
 20
-702.6562144647
 10
1020.6052228267
 20
-702.8029941621
 10
1019.7439357097
 20
-703.2867943535
 10
1018.2372494991
 20
-704.0227492007
 10
1015.9771605785
 20
-704.8081186267
 10
1013.9070912654
 20
-705.1258346664
 10
1011.7687150295
 20
-705.0105900171
 10
1009.8949834163
 20
-704.5495611283
 10
1008.0831214244
 20
-703.8230857479
 10
1006.5741702373
 20
-703.0430248606
 10
1005.9055253322
 20
-702.6545236486
 10
1005.8807298
 20
-702.6396788324
 10
1005.8807298
 20
-702.6396788324
  0
SPLINE
  5
317
330
1F
100
AcDbEntity
  8
0
  6
Continuous
 62
     7
370
    15
100
AcDbSpline
210
0.0
220
0.0
230
1.0
 70
     8
 71
     3
 72
    14
 73
    10
 74
     0
 42
0.00000001
 43
0.00000001
 40
0.0
 40
0.0
 40
0.0
 40
0.0
 40
0.1341811349410295
 40
0.2784527083116963
 40
0.4378221894076909
 40
0.6177869262443828
 40
0.7587634608627669
 40
0.9001421176368419
 40
0.9999999999999999
 40
0.9999999999999999
 40
0.9999999999999999
 40
0.9999999999999999
 10
-519.1471264307665
 20
-702.6562144646956
 30
0.0
 10
-519.1904120362882
 20
-702.6826441666458
 30
0.0
 10
-519.2802383303773
 20
-702.7374910874977
 30
0.0
 10
-520.2188248860667
 20
-703.2807220456867
 30
0.0
 10
-521.7463524205131
 20
-704.055756965585
 30
0.0
 10
-523.7859056359729
 20
-704.8255018600847
 30
0.0
 10
-526.0763036427627
 20
-705.2005223733238
 30
0.0
 10
-528.0707806529662
 20
-705.1067722181773
 30
0.0
 10
-529.1659420356823
 20
-704.7972173216993
 30
0.0
 10
-529.6192750876116
 20
-704.6690796169056
 30
0.0
  0
SPLINE
  5
318
330
1F
100
AcDbEntity
  8
0
  6
Continuous
 62
     7
370
    15
100
AcDbSpline
210
0.0
220
0.0
230
1.0
 70
     8
 71
     3
 72
    12
 73
     8
 74
     0
 42
0.00000001
 43
0.00000001
 40
0.0
 40
0.0
 40
0.0
 40
0.0
 40
0.0383388761213593
 40
0.3096579525861297
 40
0.6250743344160644
 40
0.9299979209866321
 40
1.0
 40
1.0
 40
1.0
 40
1.0
 10
-529.7994152252841
 20
-704.6247579755797
 30
0.0
 10
-529.9021334124395
 20
-704.600325993483
 30
0.0
 10
-530.7317744125363
 20
-704.4029921558998
 30
0.0
 10
-532.0730924958201
 20
-703.754335357141
 30
0.0
 10
-533.5491297938634
 20
-702.9924198051889
 30
0.0
 10
-534.0862938443984
 20
-702.6589533791947
 30
0.0
 10
-534.1140811582363
 20
-702.6427113660143
 30
0.0
 10
-534.1192693059611
 20
-702.6396788323833
 30
0.0
  0
LWPOLYLINE
  5
319
330
1F
100
AcDbEntity
  8
0
  6
Continuous
 62
     7
370
    15
100
AcDbPolyline
 90
       13
 70
   128
 43
0.0
 10
507.8529282863
 20
-702.6562144647
 10
507.6052113826
 20
-702.8029941621
 10
506.7439242656
 20
-703.2867943535
 10
505.237238055
 20
-704.0227492007
 10
502.9771491344
 20
-704.8081186267
 10
500.9070798213
 20
-705.1258346664
 10
498.7688227947
 20
-705.0105900171
 10
496.8949719722
 20
-704.5495611283
 10
495.0831099803
 20
-703.8230857479
 10
493.5741587932
 20
-703.0430248606
 10
492.9055138881
 20
-702.6545236486
 10
492.8807183559
 20
-702.6396788324
 10
492.8807183559
 20
-702.6396788324
  0
LINE
  5
31A
330
1F
100
AcDbEntity
  8
0
  6
Continuous
 62
     7
370
    15
100
AcDbLine
 10
1143.5806914623
 20
-702.6396788324
 30
0.0
 11
1143.5806914623
 21
-727.6392577814
 31
0.0
  0
LINE
  5
31B
330
1F
100
AcDbEntity
  8
0
  6
Continuous
 62
     7
370
    15
100
AcDbLine
 10
1145.1807185466
 20
-727.6392577814
 30
0.0
 11
1145.1807185466
 21
-702.6396788324
 31
0.0
  0
LINE
  5
31C
330
1F
100
AcDbEntity
  8
0
  6
Continuous
 62
     7
370
    15
100
AcDbLine
 10
1145.3807517345
 20
-702.8396784926
 30
0.0
 11
1145.3807517345
 21
-727.4392655718
 31
0.0
  0
LINE
  5
31D
330
1F
100
AcDbEntity
  8
0
  6
Continuous
 62
     7
370
    15
100
AcDbLine
 10
-656.8192683236
 20
-727.6396787393
 30
0.0
 11
-656.8192683236
 21
-702.6404583494
 31
0.0
  0
LINE
  5
31E
330
1F
100
AcDbEntity
  8
0
  6
Continuous
 62
     7
370
    15
100
AcDbLine
 10
-658.4192682977
 20
-702.6404583494
 30
0.0
 11
-658.4192682977
 21
-727.6396787393
 31
0.0
  0
LINE
  5
31F
330
1F
100
AcDbEntity
  8
0
  6
Continuous
 62
     7
370
    15
100
AcDbLine
 10
-658.6192682927
 20
-727.439679079
 30
0.0
 11
-658.6192682927
 21
-702.8404459024
 31
0.0
  0
LINE
  5
320
330
1F
100
AcDbEntity
  8
0
  6
Continuous
 62
     7
370
    15
100
AcDbLine
 10
-573.6192673986
 20
-735.9136267232
 30
0.0
 11
-543.6192662065
 21
-735.9136267232
 31
0.0
  0
LINE
  5
321
330
1F
100
AcDbEntity
  8
0
  6
Continuous
 62
     7
370
    15
100
AcDbLine
 10
-543.6192662065
 20
-732.3136291134
 30
0.0
 11
-573.6192673986
 21
-732.3136291134
 31
0.0
  0
LINE
  5
322
330
1F
100
AcDbEntity
  8
0
  6
Continuous
 62
     7
370
    15
100
AcDbLine
 10
-573.4192714636
 20
-732.1136257278
 30
0.0
 11
-543.8192695921
 21
-732.1136257278
 31
0.0
  0
LINE
  5
323
330
1F
100
AcDbEntity
  8
0
  6
Continuous
 62
     7
370
    15
100
AcDbLine
 10
156.3807293231
 20
-732.3136291134
 30
0.0
 11
126.3807579334
 21
-732.3136291134
 31
0.0
  0
LINE
  5
324
330
1F
100
AcDbEntity
  8
0
  6
Continuous
 62
     7
370
    15
100
AcDbLine
 10
126.5807315166
 20
-732.1136257278
 30
0.0
 11
156.1807557399
 21
-732.1136257278
 31
0.0
  0
LINE
  5
325
330
1F
100
AcDbEntity
  8
0
  6
Continuous
 62
     7
370
    15
100
AcDbLine
 10
126.3807579334
 20
-735.9136267232
 30
0.0
 11
156.3807293231
 21
-735.9136267232
 31
0.0
  0
LINE
  5
326
330
1F
100
AcDbEntity
  8
0
  6
Continuous
 62
     7
370
    15
100
AcDbLine
 10
128.4635826404
 20
-692.1136270876
 30
0.0
 11
154.2979046161
 21
-692.1136270876
 31
0.0
  0
LINE
  5
327
330
1F
100
AcDbEntity
  8
0
  6
Continuous
 62
     7
370
    15
100
AcDbLine
 10
1092.2979279811
 20
-743.7396793293
 30
0.0
 11
1066.4636060054
 21
-743.7396793293
 31
0.0
  0
LINE
  5
328
330
1F
100
AcDbEntity
  8
0
  6
Continuous
 62
     7
370
    15
100
AcDbLine
 10
-571.5364277904
 20
-692.1136270876
 30
0.0
 11
-545.7021132653
 21
-692.1136270876
 31
0.0
  0
LINE
  5
329
330
1F
100
AcDbEntity
  8
0
  6
Continuous
 62
     7
370
    15
100
AcDbLine
 10
-579.7021076625
 20
-743.7396793293
 30
0.0
 11
-605.5364259129
 21
-743.7396793293
 31
0.0
  0
LINE
  5
32A
330
1F
100
AcDbEntity
  8
0
  6
Continuous
 62
     7
370
    15
100
AcDbLine
 10
126.3807579334
 20
-742.113627367
 30
0.0
 11
156.3807293231
 21
-742.113627367
 31
0.0
  0
LINE
  5
32B
330
1F
100
AcDbEntity
  8
0
  6
Continuous
 62
     7
370
    15
100
AcDbLine
 10
126.3807579334
 20
-745.1136259961
 30
0.0
 11
156.3807293231
 21
-745.1136259961
 31
0.0
  0
LINE
  5
32C
330
1F
100
AcDbEntity
  8
0
  6
Continuous
 62
     7
370
    15
100
AcDbLine
 10
154.3807550723
 20
-747.1136263239
 30
0.0
 11
128.3807321842
 21
-747.1136263239
 31
0.0
  0
LINE
  5
32D
330
1F
100
AcDbEntity
  8
0
  6
Continuous
 62
     7
370
    15
100
AcDbLine
 10
-573.6192673986
 20
-745.1136259961
 30
0.0
 11
-543.6192662065
 21
-745.1136259961
 31
0.0
  0
LINE
  5
32E
330
1F
100
AcDbEntity
  8
0
  6
Continuous
 62
     7
370
    15
100
AcDbLine
 10
-545.6192702596
 20
-747.1136263239
 30
0.0
 11
-571.6192707961
 21
-747.1136263239
 31
0.0
  0
LINE
  5
32F
330
1F
100
AcDbEntity
  8
0
  6
Continuous
 62
     7
370
    15
100
AcDbLine
 10
-573.6192673986
 20
-742.113627367
 30
0.0
 11
-543.6192662065
 21
-742.113627367
 31
0.0
  0
LINE
  5
330
330
1F
100
AcDbEntity
  8
0
  6
Continuous
 62
     7
370
    15
100
AcDbLine
 10
-544.6275681799
 20
-704.1136276575
 30
0.0
 11
-573.4192714636
 21
-704.1136276575
 31
0.0
  0
LINE
  5
331
330
1F
100
AcDbEntity
  8
0
  6
Continuous
 62
     7
370
    15
100
AcDbLine
 10
-543.8192695921
 20
-704.1136276575
 30
0.0
 11
-544.6275681799
 21
-704.1136276575
 31
0.0
  0
LINE
  5
332
330
1F
100
AcDbEntity
  8
0
  6
Continuous
 62
     7
370
    15
100
AcDbLine
 10
-546.4075789397
 20
-701.1136271658
 30
0.0
 11
-545.7021132653
 21
-701.1136271658
 31
0.0
  0
LINE
  5
333
330
1F
100
AcDbEntity
  8
0
  6
Continuous
 62
     7
370
    15
100
AcDbLine
 10
-571.5364277904
 20
-701.1136271658
 30
0.0
 11
-546.4075789397
 21
-701.1136271658
 31
0.0
  0
LINE
  5
334
330
1F
100
AcDbEntity
  8
0
  6
Continuous
 62
     7
370
    15
100
AcDbLine
 10
155.3724571521
 20
-704.1136276575
 30
0.0
 11
126.5807315166
 21
-704.1136276575
 31
0.0
  0
LINE
  5
335
330
1F
100
AcDbEntity
  8
0
  6
Continuous
 62
     7
370
    15
100
AcDbLine
 10
156.1807557399
 20
-704.1136276575
 30
0.0
 11
155.3724571521
 21
-704.1136276575
 31
0.0
  0
LINE
  5
336
330
1F
100
AcDbEntity
  8
0
  6
Continuous
 62
     7
370
    15
100
AcDbLine
 10
153.5924240405
 20
-701.1136271658
 30
0.0
 11
154.2979046161
 21
-701.1136271658
 31
0.0
  0
LINE
  5
337
330
1F
100
AcDbEntity
  8
0
  6
Continuous
 62
     7
370
    15
100
AcDbLine
 10
128.4635826404
 20
-701.1136271658
 30
0.0
 11
153.5924240405
 21
-701.1136271658
 31
0.0
  0
LINE
  5
338
330
1F
100
AcDbEntity
  8
0
  6
Continuous
 62
     7
370
    15
100
AcDbLine
 10
112.3807593639
 20
-725.6136274564
 30
0.0
 11
170.3807278926
 21
-725.6136274564
 31
0.0
  0
LINE
  5
339
330
1F
100
AcDbEntity
  8
0
  6
Continuous
 62
     7
370
    15
100
AcDbLine
 10
112.3807593639
 20
-724.1136281418
 30
0.0
 11
170.3807278926
 21
-724.1136281418
 31
0.0
  0
LINE
  5
33A
330
1F
100
AcDbEntity
  8
0
  6
Continuous
 62
     7
370
    15
100
AcDbLine
 10
-558.2847208326
 20
-706.113627054
 30
0.0
 11
-587.6192659681
 21
-706.113627054
 31
0.0
  0
LINE
  5
33B
330
1F
100
AcDbEntity
  8
0
  6
Continuous
 62
     7
370
    15
100
AcDbLine
 10
-529.6192750876
 20
-706.113627054
 30
0.0
 11
-558.2847208326
 21
-706.113627054
 31
0.0
  0
LINE
  5
33C
330
1F
100
AcDbEntity
  8
0
  6
Continuous
 62
     7
370
    15
100
AcDbLine
 10
-558.2847208326
 20
-704.6136277395
 30
0.0
 11
-587.6192659681
 21
-704.6136277395
 31
0.0
  0
LINE
  5
33D
330
1F
100
AcDbEntity
  8
0
  6
Continuous
 62
     7
370
    15
100
AcDbLine
 10
-529.6192750876
 20
-704.6136277395
 30
0.0
 11
-558.2847208326
 21
-704.6136277395
 31
0.0
  0
LINE
  5
33E
330
1F
100
AcDbEntity
  8
0
  6
Continuous
 62
     7
370
    15
100
AcDbLine
 10
-587.6192659681
 20
-725.6136274564
 30
0.0
 11
-529.6192750876
 21
-725.6136274564
 31
0.0
  0
LINE
  5
33F
330
1F
100
AcDbEntity
  8
0
  6
Continuous
 62
     7
370
    15
100
AcDbLine
 10
-587.6192659681
 20
-724.1136281418
 30
0.0
 11
-529.6192750876
 21
-724.1136281418
 31
0.0
  0
LINE
  5
340
330
1F
100
AcDbEntity
  8
0
  6
Continuous
 62
     7
370
    15
100
AcDbLine
 10
141.7153044994
 20
-706.113627054
 30
0.0
 11
112.3807593639
 21
-706.113627054
 31
0.0
  0
LINE
  5
341
330
1F
100
AcDbEntity
  8
0
  6
Continuous
 62
     7
370
    15
100
AcDbLine
 10
170.3807278926
 20
-706.113627054
 30
0.0
 11
141.7153044994
 21
-706.113627054
 31
0.0
  0
LINE
  5
342
330
1F
100
AcDbEntity
  8
0
  6
Continuous
 62
     7
370
    15
100
AcDbLine
 10
141.7153044994
 20
-704.6136277395
 30
0.0
 11
112.3807593639
 21
-704.6136277395
 31
0.0
  0
LINE
  5
343
330
1F
100
AcDbEntity
  8
0
  6
Continuous
 62
     7
370
    15
100
AcDbLine
 10
170.3807278926
 20
-704.6136277395
 30
0.0
 11
141.7153044994
 21
-704.6136277395
 31
0.0
  0
LINE
  5
344
330
1F
100
AcDbEntity
  8
0
  6
Continuous
 62
     7
370
    15
100
AcDbLine
 10
-587.6192659681
 20
-706.113627054
 30
0.0
 11
-529.6192750876
 21
-706.113627054
 31
0.0
  0
LINE
  5
345
330
1F
100
AcDbEntity
  8
0
  6
Continuous
 62
     7
370
    15
100
AcDbLine
 10
-570.5132842605
 20
-707.1340557786
 30
0.0
 11
-529.6192750876
 21
-707.1340557786
 31
0.0
  0
LINE
  5
346
330
1F
100
AcDbEntity
  8
0
  6
Continuous
 62
     7
370
    15
100
AcDbLine
 10
-587.6192659681
 20
-707.1340557786
 30
0.0
 11
-570.5132842605
 21
-707.1340557786
 31
0.0
  0
LINE
  5
347
330
1F
100
AcDbEntity
  8
0
  6
Continuous
 62
     7
370
    15
100
AcDbLine
 10
-529.6192750876
 20
-723.1453022587
 30
0.0
 11
-587.6192659681
 21
-723.1453022587
 31
0.0
  0
LINE
  5
348
330
1F
100
AcDbEntity
  8
0
  6
Continuous
 62
     7
370
    15
100
AcDbLine
 10
129.486696368
 20
-707.1340557786
 30
0.0
 11
170.3807278926
 21
-707.1340557786
 31
0.0
  0
LINE
  5
349
330
1F
100
AcDbEntity
  8
0
  6
Continuous
 62
     7
370
    15
100
AcDbLine
 10
112.3807593639
 20
-707.1340557786
 30
0.0
 11
129.486696368
 21
-707.1340557786
 31
0.0
  0
LINE
  5
34A
330
1F
100
AcDbEntity
  8
0
  6
Continuous
 62
     7
370
    15
100
AcDbLine
 10
112.3807593639
 20
-706.113627054
 30
0.0
 11
170.3807278926
 21
-706.113627054
 31
0.0
  0
LINE
  5
34B
330
1F
100
AcDbEntity
  8
0
  6
Continuous
 62
     7
370
    15
100
AcDbLine
 10
170.3807278926
 20
-723.1453022587
 30
0.0
 11
112.3807593639
 21
-723.1453022587
 31
0.0
  0
LINE
  5
34C
330
1F
100
AcDbEntity
  8
0
  6
Continuous
 62
     7
370
    15
100
AcDbLine
 10
-573.6192673986
 20
-736.1136263835
 30
0.0
 11
-573.6192673986
 21
-742.113627367
 31
0.0
  0
LINE
  5
34D
330
1F
100
AcDbEntity
  8
0
  6
Continuous
 62
     7
370
    15
100
AcDbLine
 10
-543.6192662065
 20
-736.1136263835
 30
0.0
 11
-543.6192662065
 21
-742.113627367
 31
0.0
  0
LINE
  5
34E
330
1F
100
AcDbEntity
  8
0
  6
Continuous
 62
     7
370
    15
100
AcDbLine
 10
-573.6192673986
 20
-736.1136263835
 30
0.0
 11
-543.6192662065
 21
-736.1136263835
 31
0.0
  0
LINE
  5
34F
330
1F
100
AcDbEntity
  8
0
  6
Continuous
 62
     7
370
    15
100
AcDbLine
 10
126.3807579334
 20
-736.1136263835
 30
0.0
 11
126.3807579334
 21
-742.113627367
 31
0.0
  0
LINE
  5
350
330
1F
100
AcDbEntity
  8
0
  6
Continuous
 62
     7
370
    15
100
AcDbLine
 10
156.3807293231
 20
-736.1136263835
 30
0.0
 11
156.3807293231
 21
-742.113627367
 31
0.0
  0
LINE
  5
351
330
1F
100
AcDbEntity
  8
0
  6
Continuous
 62
     7
370
    15
100
AcDbLine
 10
126.3807579334
 20
-736.1136263835
 30
0.0
 11
156.3807293231
 21
-736.1136263835
 31
0.0
  0
LINE
  5
352
330
1F
100
AcDbEntity
  8
0
  6
Continuous
 62
     7
370
    15
100
AcDbLine
 10
-543.6192662065
 20
-726.41362796
 30
0.0
 11
-573.6192673986
 21
-726.41362796
 31
0.0
  0
LINE
  5
353
330
1F
100
AcDbEntity
  8
0
  6
Continuous
 62
     7
370
    15
100
AcDbLine
 10
-573.6192673986
 20
-731.8136281001
 30
0.0
 11
-543.6192662065
 21
-731.8136281001
 31
0.0
  0
LINE
  5
354
330
1F
100
AcDbEntity
  8
0
  6
Continuous
 62
     7
370
    15
100
AcDbLine
 10
-573.3192697709
 20
-726.113626607
 30
0.0
 11
-543.9192712848
 21
-726.113626607
 31
0.0
  0
LINE
  5
355
330
1F
100
AcDbEntity
  8
0
  6
Continuous
 62
     7
370
    15
100
AcDbLine
 10
156.3807293231
 20
-726.41362796
 30
0.0
 11
126.3807579334
 21
-726.41362796
 31
0.0
  0
LINE
  5
356
330
1F
100
AcDbEntity
  8
0
  6
Continuous
 62
     7
370
    15
100
AcDbLine
 10
126.3807579334
 20
-731.8136281001
 30
0.0
 11
156.3807293231
 21
-731.8136281001
 31
0.0
  0
LINE
  5
357
330
1F
100
AcDbEntity
  8
0
  6
Continuous
 62
     7
370
    15
100
AcDbLine
 10
126.6807481105
 20
-726.113626607
 30
0.0
 11
156.080739146
 21
-726.113626607
 31
0.0
  0
LINE
  5
358
330
1F
100
AcDbEntity
  8
0
  6
Continuous
 62
     7
370
    15
100
AcDbLine
 10
241.3807078655
 20
-736.1136263835
 30
0.0
 11
156.3807293231
 21
-736.1136263835
 31
0.0
  0
LINE
  5
359
330
1F
100
AcDbEntity
  8
0
  6
Continuous
 62
     7
370
    15
100
AcDbLine
 10
126.3807579334
 20
-736.1136263835
 30
0.0
 11
-543.6192662065
 21
-736.1136263835
 31
0.0
  0
LINE
  5
35A
330
1F
100
AcDbEntity
  8
0
  6
Continuous
 62
     7
370
    15
100
AcDbLine
 10
-612.6192682033
 20
-736.1136263835
 30
0.0
 11
-658.6192682927
 21
-736.1136263835
 31
0.0
  0
LINE
  5
35B
330
1F
100
AcDbEntity
  8
0
  6
Continuous
 62
     7
370
    15
100
AcDbLine
 10
241.3807078655
 20
-696.1136272776
 30
0.0
 11
-6.1192945187
 21
-696.1136272776
 31
0.0
  0
LINE
  5
35C
330
1F
100
AcDbEntity
  8
0
  6
Continuous
 62
     7
370
    15
100
AcDbLine
 10
-21.1192802136
 20
-696.1136272776
 30
0.0
 11
-519.1192612593
 21
-696.1136272776
 31
0.0
  0
LINE
  5
35D
330
1F
100
AcDbEntity
  8
0
  6
Continuous
 62
     7
370
    15
100
AcDbLine
 10
-534.119269306
 20
-696.1136272776
 30
0.0
 11
-658.6192682927
 21
-696.1136272776
 31
0.0
  0
LINE
  5
35E
330
1F
100
AcDbEntity
  8
0
  6
Continuous
 62
     7
370
    15
100
AcDbLine
 10
-658.6192682927
 20
-736.1136263835
 30
0.0
 11
-658.6192682927
 21
-727.439679079
 31
0.0
  0
LINE
  5
35F
330
1F
100
AcDbEntity
  8
0
  6
Continuous
 62
     7
370
    15
100
AcDbLine
 10
-658.6192682927
 20
-702.8396784926
 30
0.0
 11
-658.6192682927
 21
-696.1136272776
 31
0.0
  0
LINE
  5
360
330
1F
100
AcDbEntity
  8
0
  6
Continuous
 62
     7
370
    15
100
AcDbLine
 10
241.3807078655
 20
-736.1136263835
 30
0.0
 11
241.3807078655
 21
-727.6396787393
 31
0.0
  0
LINE
  5
361
330
1F
100
AcDbEntity
  8
0
  6
Continuous
 62
     7
370
    15
100
AcDbLine
 10
241.3807078655
 20
-702.6396788324
 30
0.0
 11
241.3807078655
 21
-696.1136272776
 31
0.0
  0
LINE
  5
362
330
1F
100
AcDbEntity
  8
0
  6
Continuous
 62
     7
370
    15
100
AcDbLine
 10
1005.9306784923
 20
-728.3273785042
 30
0.0
 11
1020.8307668025
 21
-728.3273785042
 31
0.0
  0
LINE
  5
363
330
1F
100
AcDbEntity
  8
0
  6
Continuous
 62
     7
370
    15
100
AcDbLine
 10
1019.8307200725
 20
-729.3273805308
 30
0.0
 11
1006.9307252223
 21
-729.3273805308
 31
0.0
  0
LINE
  5
364
330
1F
100
AcDbEntity
  8
0
  6
Continuous
 62
     7
370
    15
100
AcDbLine
 10
-21.0692719166
 20
-728.3273785042
 30
0.0
 11
-6.1693028157
 21
-728.3273785042
 31
0.0
  0
LINE
  5
365
330
1F
100
AcDbEntity
  8
0
  6
Continuous
 62
     7
370
    15
100
AcDbLine
 10
-7.1692899411
 20
-729.3273805308
 30
0.0
 11
-20.0692847912
 21
-729.3273805308
 31
0.0
  0
LINE
  5
366
330
1F
100
AcDbEntity
  8
0
  6
Continuous
 62
     7
370
    15
100
AcDbLine
 10
492.9307862575
 20
-728.3273785042
 30
0.0
 11
507.8307553584
 21
-728.3273785042
 31
0.0
  0
LINE
  5
367
330
1F
100
AcDbEntity
  8
0
  6
Continuous
 62
     7
370
    15
100
AcDbLine
 10
506.8307086284
 20
-729.3273805308
 30
0.0
 11
493.9307137782
 21
-729.3273805308
 31
0.0
  0
LINE
  5
368
330
1F
100
AcDbEntity
  8
0
  6
Continuous
 62
     7
370
    15
100
AcDbLine
 10
-534.0692684596
 20
-728.3273785042
 30
0.0
 11
-519.1692844575
 21
-728.3273785042
 31
0.0
  0
LINE
  5
369
330
1F
100
AcDbEntity
  8
0
  6
Continuous
 62
     7
370
    15
100
AcDbLine
 10
-520.169286484
 20
-729.3273805308
 30
0.0
 11
-533.069266433
 21
-729.3273805308
 31
0.0
  0
LINE
  5
36A
330
1F
100
AcDbEntity
  8
0
  6
Continuous
 62
     7
370
    15
100
AcDbLine
 10
1038.3806392009
 20
-681.6396786498
 30
0.0
 11
988.3806868846
 21
-681.6396786498
 31
0.0
  0
LINE
  5
36B
330
1F
100
AcDbEntity
  8
0
  6
Continuous
 62
     7
370
    15
100
AcDbLine
 10
988.3806868846
 20
-683.6396789777
 30
0.0
 11
1038.3806392009
 21
-683.6396789777
 31
0.0
  0
LINE
  5
36C
330
1F
100
AcDbEntity
  8
0
  6
Continuous
 62
     7
370
    15
100
AcDbLine
 10
1037.3807116802
 20
-684.6396791416
 30
0.0
 11
989.3807336147
 21
-684.6396791416
 31
0.0
  0
LINE
  5
36D
330
1F
100
AcDbEntity
  8
0
  6
Continuous
 62
     7
370
    15
100
AcDbLine
 10
-551.6192675178
 20
-683.6396789777
 30
0.0
 11
-501.6193375533
 21
-683.6396789777
 31
0.0
  0
LINE
  5
36E
330
1F
100
AcDbEntity
  8
0
  6
Continuous
 62
     7
370
    15
100
AcDbLine
 10
-501.6193375533
 20
-681.6396786498
 30
0.0
 11
-551.6192675178
 21
-681.6396786498
 31
0.0
  0
LINE
  5
36F
330
1F
100
AcDbEntity
  8
0
  6
Continuous
 62
     7
370
    15
100
AcDbLine
 10
-502.6193395798
 20
-684.6396791416
 30
0.0
 11
-550.6192654913
 21
-684.6396791416
 31
0.0
  0
LINE
  5
370
330
1F
100
AcDbEntity
  8
0
  6
Continuous
 62
     7
370
    15
100
AcDbLine
 10
525.3806277568
 20
-681.6396786498
 30
0.0
 11
475.3806754405
 21
-681.6396786498
 31
0.0
  0
LINE
  5
371
330
1F
100
AcDbEntity
  8
0
  6
Continuous
 62
     7
370
    15
100
AcDbLine
 10
475.3806754405
 20
-683.6396789777
 30
0.0
 11
525.3806277568
 21
-683.6396789777
 31
0.0
  0
LINE
  5
372
330
1F
100
AcDbEntity
  8
0
  6
Continuous
 62
     7
370
    15
100
AcDbLine
 10
524.3807002361
 20
-684.6396791416
 30
0.0
 11
476.3807221706
 21
-684.6396791416
 31
0.0
  0
LINE
  5
373
330
1F
100
AcDbEntity
  8
0
  6
Continuous
 62
     7
370
    15
100
AcDbLine
 10
11.3806291873
 20
-681.6396786498
 30
0.0
 11
-38.6192635243
 21
-681.6396786498
 31
0.0
  0
LINE
  5
374
330
1F
100
AcDbEntity
  8
0
  6
Continuous
 62
     7
370
    15
100
AcDbLine
 10
-38.6192635243
 20
-683.6396789777
 30
0.0
 11
11.3806291873
 21
-683.6396789777
 31
0.0
  0
LINE
  5
375
330
1F
100
AcDbEntity
  8
0
  6
Continuous
 62
     7
370
    15
100
AcDbLine
 10
10.3806420619
 20
-684.6396791416
 30
0.0
 11
-37.6192763989
 21
-684.6396791416
 31
0.0
  0
LINE
  5
376
330
1F
100
AcDbEntity
  8
0
  6
Continuous
 62
     8
370
    15
100
AcDbLine
 10
133.9558526332
 20
-694.1964699554
 30
0.0
 11
126.3807579334
 21
-694.1964699554
 31
0.0
  0
LINE
  5
377
330
1F
100
AcDbEntity
  8
0
  6
Continuous
 62
     8
370
    15
100
AcDbLine
 10
156.3807293231
 20
-694.1964699554
 30
0.0
 11
133.9558526332
 21
-694.1964699554
 31
0.0
  0
LINE
  5
378
330
1F
100
AcDbEntity
  8
0
  6
Continuous
 62
     8
370
    15
100
AcDbLine
 10
126.4392896945
 20
-694.0550486224
 30
0.0
 11
156.3221379573
 21
-694.0550486224
 31
0.0
  0
LINE
  5
379
330
1F
100
AcDbEntity
  8
0
  6
Continuous
 62
     8
370
    15
100
AcDbLine
 10
126.3807579334
 20
-695.9136272826
 30
0.0
 11
156.3807293231
 21
-695.9136272826
 31
0.0
  0
LINE
  5
37A
330
1F
100
AcDbEntity
  8
0
  6
Continuous
 62
     8
370
    15
100
AcDbLine
 10
154.4392868335
 20
-692.1722058805
 30
0.0
 11
128.3221408183
 21
-692.1722058805
 31
0.0
  0
LINE
  5
37B
330
1F
100
AcDbEntity
  8
0
  6
Continuous
 62
     8
370
    15
100
AcDbLine
 10
1094.3807526882
 20
-739.9396783339
 30
0.0
 11
1064.3807812984
 21
-739.9396783339
 31
0.0
  0
LINE
  5
37C
330
1F
100
AcDbEntity
  8
0
  6
Continuous
 62
     8
370
    15
100
AcDbLine
 10
1093.2367011363
 20
-741.6568359959
 30
0.0
 11
1094.3807526882
 21
-741.6568359959
 31
0.0
  0
LINE
  5
37D
330
1F
100
AcDbEntity
  8
0
  6
Continuous
 62
     8
370
    15
100
AcDbLine
 10
1064.3807812984
 20
-741.6568359959
 30
0.0
 11
1093.2367011363
 21
-741.6568359959
 31
0.0
  0
LINE
  5
37E
330
1F
100
AcDbEntity
  8
0
  6
Continuous
 62
     8
370
    15
100
AcDbLine
 10
1094.3221017177
 20
-741.7982591915
 30
0.0
 11
1064.4393130596
 21
-741.7982591915
 31
0.0
  0
LINE
  5
37F
330
1F
100
AcDbEntity
  8
0
  6
Continuous
 62
     8
370
    15
100
AcDbLine
 10
1066.3221045787
 20
-743.6810991394
 30
0.0
 11
1092.4393101985
 21
-743.6810991394
 31
0.0
  0
LINE
  5
380
330
1F
100
AcDbEntity
  8
0
  6
Continuous
 62
     8
370
    15
100
AcDbLine
 10
-566.0441652482
 20
-694.1964699554
 30
0.0
 11
-573.6192673986
 21
-694.1964699554
 31
0.0
  0
LINE
  5
381
330
1F
100
AcDbEntity
  8
0
  6
Continuous
 62
     8
370
    15
100
AcDbLine
 10
-543.6192662065
 20
-694.1964699554
 30
0.0
 11
-566.0441652482
 21
-694.1964699554
 31
0.0
  0
LINE
  5
382
330
1F
100
AcDbEntity
  8
0
  6
Continuous
 62
     8
370
    15
100
AcDbLine
 10
-573.6192673986
 20
-695.9136272826
 30
0.0
 11
-543.6192662065
 21
-695.9136272826
 31
0.0
  0
LINE
  5
383
330
1F
100
AcDbEntity
  8
0
  6
Continuous
 62
     8
370
    15
100
AcDbLine
 10
-573.560690934
 20
-694.0550486224
 30
0.0
 11
-543.6778501218
 21
-694.0550486224
 31
0.0
  0
LINE
  5
384
330
1F
100
AcDbEntity
  8
0
  6
Continuous
 62
     8
370
    15
100
AcDbLine
 10
-545.5606863444
 20
-692.1722058805
 30
0.0
 11
-571.6778472607
 21
-692.1722058805
 31
0.0
  0
LINE
  5
385
330
1F
100
AcDbEntity
  8
0
  6
Continuous
 62
     8
370
    15
100
AcDbLine
 10
-578.7633494084
 20
-741.6568359959
 30
0.0
 11
-577.6192680543
 21
-741.6568359959
 31
0.0
  0
LINE
  5
386
330
1F
100
AcDbEntity
  8
0
  6
Continuous
 62
     8
370
    15
100
AcDbLine
 10
-607.6192692464
 20
-741.6568359959
 30
0.0
 11
-578.7633494084
 21
-741.6568359959
 31
0.0
  0
LINE
  5
387
330
1F
100
AcDbEntity
  8
0
  6
Continuous
 62
     8
370
    15
100
AcDbLine
 10
-577.6192680543
 20
-739.9396783339
 30
0.0
 11
-607.6192692464
 21
-739.9396783339
 31
0.0
  0
LINE
  5
388
330
1F
100
AcDbEntity
  8
0
  6
Continuous
 62
     8
370
    15
100
AcDbLine
 10
-577.6778445189
 20
-741.7982591915
 30
0.0
 11
-607.5606890564
 21
-741.7982591915
 31
0.0
  0
LINE
  5
389
330
1F
100
AcDbEntity
  8
0
  6
Continuous
 62
     8
370
    15
100
AcDbLine
 10
-605.6778453832
 20
-743.6810991394
 30
0.0
 11
-579.5606881921
 21
-743.6810991394
 31
0.0
  0
LINE
  5
38A
330
1F
100
AcDbEntity
  8
0
  6
Continuous
 62
     8
370
    15
100
AcDbLine
 10
-543.6192662065
 20
-703.1964700336
 30
0.0
 11
-573.6192673986
 21
-703.1964700336
 31
0.0
  0
LINE
  5
38B
330
1F
100
AcDbEntity
  8
0
  6
Continuous
 62
     8
370
    15
100
AcDbLine
 10
-544.4938749616
 20
-703.0550487007
 30
0.0
 11
-543.6778501218
 21
-703.0550487007
 31
0.0
  0
LINE
  5
38C
330
1F
100
AcDbEntity
  8
0
  6
Continuous
 62
     8
370
    15
100
AcDbLine
 10
-573.560690934
 20
-703.0550487007
 30
0.0
 11
-544.4938749616
 21
-703.0550487007
 31
0.0
  0
LINE
  5
38D
330
1F
100
AcDbEntity
  8
0
  6
Continuous
 62
     8
370
    15
100
AcDbLine
 10
-544.4384947961
 20
-703.913627066
 30
0.0
 11
-543.6192662065
 21
-703.913627066
 31
0.0
  0
LINE
  5
38E
330
1F
100
AcDbEntity
  8
0
  6
Continuous
 62
     8
370
    15
100
AcDbLine
 10
-573.6192673986
 20
-703.913627066
 30
0.0
 11
-544.4384947961
 21
-703.913627066
 31
0.0
  0
LINE
  5
38F
330
1F
100
AcDbEntity
  8
0
  6
Continuous
 62
     8
370
    15
100
AcDbLine
 10
-546.2738857215
 20
-701.1722059588
 30
0.0
 11
-571.6778472607
 21
-701.1722059588
 31
0.0
  0
LINE
  5
390
330
1F
100
AcDbEntity
  8
0
  6
Continuous
 62
     8
370
    15
100
AcDbLine
 10
-545.5606863444
 20
-701.1722059588
 30
0.0
 11
-546.2738857215
 21
-701.1722059588
 31
0.0
  0
LINE
  5
391
330
1F
100
AcDbEntity
  8
0
  6
Continuous
 62
     8
370
    15
100
AcDbLine
 10
156.3807293231
 20
-703.1964700336
 30
0.0
 11
126.3807579334
 21
-703.1964700336
 31
0.0
  0
LINE
  5
392
330
1F
100
AcDbEntity
  8
0
  6
Continuous
 62
     8
370
    15
100
AcDbLine
 10
155.5061503703
 20
-703.0550487007
 30
0.0
 11
156.3221379573
 21
-703.0550487007
 31
0.0
  0
LINE
  5
393
330
1F
100
AcDbEntity
  8
0
  6
Continuous
 62
     8
370
    15
100
AcDbLine
 10
126.4392896945
 20
-703.0550487007
 30
0.0
 11
155.5061503703
 21
-703.0550487007
 31
0.0
  0
LINE
  5
394
330
1F
100
AcDbEntity
  8
0
  6
Continuous
 62
     8
370
    15
100
AcDbLine
 10
155.5615230853
 20
-703.913627066
 30
0.0
 11
156.3807293231
 21
-703.913627066
 31
0.0
  0
LINE
  5
395
330
1F
100
AcDbEntity
  8
0
  6
Continuous
 62
     8
370
    15
100
AcDbLine
 10
126.3807579334
 20
-703.913627066
 30
0.0
 11
155.5615230853
 21
-703.913627066
 31
0.0
  0
LINE
  5
396
330
1F
100
AcDbEntity
  8
0
  6
Continuous
 62
     8
370
    15
100
AcDbLine
 10
153.7261172588
 20
-701.1722059588
 30
0.0
 11
128.3221408183
 21
-701.1722059588
 31
0.0
  0
LINE
  5
397
330
1F
100
AcDbEntity
  8
0
  6
Continuous
 62
     8
370
    15
100
AcDbLine
 10
153.7261172588
 20
-701.1722059588
 30
0.0
 11
154.4392868335
 21
-701.1722059588
 31
0.0
  0
ENDSEC
  0
SECTION
  2
OBJECTS
  0
DICTIONARY
  5
C
330
0
100
AcDbDictionary
281
     1
  3
ACAD_GROUP
350
D
  3
ACAD_LAYOUT
350
1A
  3
ACAD_MLEADERSTYLE
350
39A
  3
ACAD_MLINESTYLE
350
17
  3
ACAD_PLOTSETTINGS
350
19
  3
ACAD_PLOTSTYLENAME
350
E
  3
ACAD_VISUALSTYLE
350
2A
  3
AcDbVariableDictionary
350
398
  0
DICTIONARY
  5
D
102
{ACAD_REACTORS
330
C
102
}
330
C
100
AcDbDictionary
281
     1
  0
DICTIONARY
  5
1A
102
{ACAD_REACTORS
330
C
102
}
330
C
100
AcDbDictionary
281
     1
  3
Layout1
350
1E
  3
Layout2
350
26
  3
Model
350
22
  0
DICTIONARY
  5
39A
102
{ACAD_REACTORS
330
C
102
}
330
C
100
AcDbDictionary
281
     1
  0
DICTIONARY
  5
17
102
{ACAD_REACTORS
330
C
102
}
330
C
100
AcDbDictionary
281
     1
  3
Standard
350
18
  0
DICTIONARY
  5
19
102
{ACAD_REACTORS
330
C
102
}
330
C
100
AcDbDictionary
281
     1
  0
ACDBDICTIONARYWDFLT
  5
E
102
{ACAD_REACTORS
330
C
102
}
330
C
100
AcDbDictionary
281
     1
  3
Normal
350
F
100
AcDbDictionaryWithDefault
340
F
  0
DICTIONARY
  5
2A
102
{ACAD_REACTORS
330
C
102
}
330
C
100
AcDbDictionary
281
     1
  3
2dWireframe
350
2F
  3
3D Hidden
350
31
  3
3dWireframe
350
30
  3
Basic
350
32
  3
Brighten
350
36
  3
ColorChange
350
3A
  3
Conceptual
350
34
  3
Dim
350
35
  3
Facepattern
350
39
  3
Flat
350
2B
  3
FlatWithEdges
350
2C
  3
Gouraud
350
2D
  3
GouraudWithEdges
350
2E
  3
Linepattern
350
38
  3
Realistic
350
33
  3
Thicken
350
37
  0
DICTIONARY
  5
398
102
{ACAD_REACTORS
330
C
102
}
330
C
100
AcDbDictionary
281
     1
  3
DIMASSOC
350
39D
  3
HIDETEXT
350
39E
  3
PSOLHEIGHT
350
39C
  3
PSOLWIDTH
350
39B
  0
LAYOUT
  5
1E
102
{ACAD_REACTORS
330
1A
102
}
330
1A
100
AcDbPlotSettings
  1

  2
none_device
  4

  6

 40
0.0
 41
0.0
 42
0.0
 43
0.0
 44
0.0
 45
0.0
 46
0.0
 47
0.0
 48
0.0
 49
0.0
140
0.0
141
0.0
142
1.0
143
1.0
 70
   688
 72
     0
 73
     0
 74
     5
  7

 75
    16
147
1.0
148
0.0
149
0.0
100
AcDbLayout
  1
Layout1
 70
     1
 71
     1
 10
0.0
 20
0.0
 11
420.0
 21
297.0
 12
0.0
 22
0.0
 32
0.0
 14
1.0000000000E+20
 24
1.0000000000E+20
 34
1.0000000000E+20
 15
-1.0000000000E+20
 25
-1.0000000000E+20
 35
-1.0000000000E+20
146
0.0
 13
0.0
 23
0.0
 33
0.0
 16
1.0
 26
0.0
 36
0.0
 17
0.0
 27
1.0
 37
0.0
 76
     0
330
1B
  0
LAYOUT
  5
26
102
{ACAD_REACTORS
330
1A
102
}
330
1A
100
AcDbPlotSettings
  1

  2
none_device
  4

  6

 40
0.0
 41
0.0
 42
0.0
 43
0.0
 44
0.0
 45
0.0
 46
0.0
 47
0.0
 48
0.0
 49
0.0
140
0.0
141
0.0
142
1.0
143
1.0
 70
   688
 72
     0
 73
     0
 74
     5
  7

 75
    16
147
1.0
148
0.0
149
0.0
100
AcDbLayout
  1
Layout2
 70
     1
 71
     2
 10
0.0
 20
0.0
 11
0.0
 21
0.0
 12
0.0
 22
0.0
 32
0.0
 14
0.0
 24
0.0
 34
0.0
 15
0.0
 25
0.0
 35
0.0
146
0.0
 13
0.0
 23
0.0
 33
0.0
 16
1.0
 26
0.0
 36
0.0
 17
0.0
 27
1.0
 37
0.0
 76
     0
330
23
  0
LAYOUT
  5
22
102
{ACAD_REACTORS
330
1A
102
}
330
1A
100
AcDbPlotSettings
  1

  2
none_device
  4

  6

 40
0.0
 41
0.0
 42
0.0
 43
0.0
 44
0.0
 45
0.0
 46
0.0
 47
0.0
 48
0.0
 49
0.0
140
0.0
141
0.0
142
1.0
143
1.0
 70
  1712
 72
     0
 73
     0
 74
     0
  7

 75
     0
147
1.0
148
0.0
149
0.0
100
AcDbLayout
  1
Model
 70
     1
 71
     0
 10
0.0
 20
0.0
 11
841.0
 21
594.0
 12
0.0
 22
0.0
 32
0.0
 14
0.0
 24
0.0
 34
0.0
 15
841.0
 25
594.0
 35
0.0
146
0.0
 13
0.0
 23
0.0
 33
0.0
 16
1.0
 26
0.0
 36
0.0
 17
0.0
 27
1.0
 37
0.0
 76
     0
330
1F
331
29
  0
MLINESTYLE
  5
18
102
{ACAD_REACTORS
330
17
102
}
330
17
100
AcDbMlineStyle
  2
Standard
 70
     0
  3

 62
   256
 51
90.0
 52
90.0
 71
     2
 49
0.5
 62
   256
  6
BYLAYER
 49
-0.5
 62
   256
  6
BYLAYER
  0
ACDBPLACEHOLDER
  5
F
102
{ACAD_REACTORS
330
E
102
}
330
E
  0
VISUALSTYLE
  5
2F
102
{ACAD_REACTORS
330
2A
102
}
330
2A
100
AcDbVisualStyle
  2
2dWireframe
 70
     4
 71
     0
 72
     2
 73
     0
 90
        0
 40
-0.6
 41
-30.0
 62
     5
 63
     7
 74
     1
 91
        4
 64
     7
 65
   257
 75
     1
175
     1
 42
1.0
 92
        0
 66
   257
 43
1.0
 76
     1
 77
     6
 78
     2
 67
     7
 79
     5
170
     0
171
     0
290
     0
174
     0
 93
        1
 44
0.0
173
     0
291
     0
 45
0.0
1001
ACAD
1000
AcDbSavedByObjectVersion
1070
     0
  0
VISUALSTYLE
  5
31
102
{ACAD_REACTORS
330
2A
102
}
330
2A
100
AcDbVisualStyle
  2
3D Hidden
 70
     6
 71
     1
 72
     2
 73
     2
 90
        0
 40
-0.6
 41
-30.0
 62
     5
 63
     7
 74
     2
 91
        2
 64
     7
 65
   257
 75
     2
175
     1
 42
40.0
 92
        0
 66
   257
 43
1.0
 76
     1
 77
     6
 78
     2
 67
     7
 79
     3
170
     0
171
     0
290
     0
174
     0
 93
        1
 44
0.0
173
     0
291
     0
 45
0.0
1001
ACAD
1000
AcDbSavedByObjectVersion
1070
     0
  0
VISUALSTYLE
  5
30
102
{ACAD_REACTORS
330
2A
102
}
330
2A
100
AcDbVisualStyle
  2
3dWireframe
 70
     5
 71
     0
 72
     2
 73
     0
 90
        0
 40
-0.6
 41
-30.0
 62
     5
 63
     7
 74
     1
 91
        4
 64
     7
 65
   257
 75
     1
175
     1
 42
1.0
 92
        0
 66
   257
 43
1.0
 76
     1
 77
     6
 78
     2
 67
     7
 79
     5
170
     0
171
     0
290
     0
174
     0
 93
        1
 44
0.0
173
     0
291
     0
 45
0.0
1001
ACAD
1000
AcDbSavedByObjectVersion
1070
     0
  0
VISUALSTYLE
  5
32
102
{ACAD_REACTORS
330
2A
102
}
330
2A
100
AcDbVisualStyle
  2
Basic
 70
     7
 71
     1
 72
     0
 73
     1
 90
        0
 40
-0.6
 41
-30.0
 62
     5
 63
     7
 74
     0
 91
        4
 64
     7
 65
   257
 75
     1
175
     1
 42
1.0
 92
        8
 66
     7
 43
1.0
 76
     1
 77
     6
 78
     2
 67
     7
 79
     5
170
     0
171
     0
290
     0
174
     0
 93
        1
 44
0.0
173
     0
291
     1
 45
0.0
1001
ACAD
1000
AcDbSavedByObjectVersion
1070
     0
  0
VISUALSTYLE
  5
36
102
{ACAD_REACTORS
330
2A
102
}
330
2A
100
AcDbVisualStyle
  2
Brighten
 70
    12
 71
     2
 72
     2
 73
     0
 90
        0
 40
-0.6
 41
-30.0
 62
     5
 63
     7
 74
     1
 91
        4
 64
     7
 65
   257
 75
     1
175
     1
 42
1.0
 92
        8
 66
     7
 43
1.0
 76
     1
 77
     6
 78
     2
 67
     7
 79
     5
170
     0
171
     0
290
     0
174
     0
 93
        1
 44
50.0
173
     0
291
     1
 45
0.0
1001
ACAD
1000
AcDbSavedByObjectVersion
1070
     0
  0
VISUALSTYLE
  5
3A
102
{ACAD_REACTORS
330
2A
102
}
330
2A
100
AcDbVisualStyle
  2
ColorChange
 70
    16
 71
     2
 72
     2
 73
     3
 90
        0
 40
-0.6
 41
-30.0
 62
     5
 63
     8
 74
     1
 91
        4
 64
     7
 65
   257
 75
     1
175
     1
 42
1.0
 92
        8
 66
     8
 43
1.0
 76
     1
 77
     6
 78
     2
 67
     7
 79
     5
170
     0
171
     0
290
     0
174
     0
 93
        1
 44
0.0
173
     0
291
     1
 45
0.0
1001
ACAD
1000
AcDbSavedByObjectVersion
1070
     0
  0
VISUALSTYLE
  5
34
102
{ACAD_REACTORS
330
2A
102
}
330
2A
100
AcDbVisualStyle
  2
Conceptual
 70
     9
 71
     3
 72
     2
 73
     0
 90
        0
 40
-0.6
 41
-30.0
 62
     5
 63
     7
 74
     2
 91
        2
 64
     7
 65
   257
 75
     1
175
     1
 42
40.0
 92
        8
 66
     7
 43
1.0
 76
     1
 77
     6
 78
     2
 67
     7
 79
     3
170
     0
171
     0
290
     0
174
     0
 93
        1
 44
0.0
173
     0
291
     0
 45
0.0
1001
ACAD
1000
AcDbSavedByObjectVersion
1070
     0
  0
VISUALSTYLE
  5
35
102
{ACAD_REACTORS
330
2A
102
}
330
2A
100
AcDbVisualStyle
  2
Dim
 70
    11
 71
     2
 72
     2
 73
     0
 90
        0
 40
-0.6
 41
-30.0
 62
     5
 63
     7
 74
     1
 91
        4
 64
     7
 65
   257
 75
     1
175
     1
 42
1.0
 92
        8
 66
     7
 43
1.0
 76
     1
 77
     6
 78
     2
 67
     7
 79
     5
170
     0
171
     0
290
     0
174
     0
 93
        1
 44
-50.0
173
     0
291
     1
 45
0.0
1001
ACAD
1000
AcDbSavedByObjectVersion
1070
     0
  0
VISUALSTYLE
  5
39
102
{ACAD_REACTORS
330
2A
102
}
330
2A
100
AcDbVisualStyle
  2
Facepattern
 70
    15
 71
     2
 72
     2
 73
     0
 90
        0
 40
-0.6
 41
-30.0
 62
     5
 63
     7
 74
     1
 91
        4
 64
     7
 65
   257
 75
     1
175
     1
 42
1.0
 92
        8
 66
     7
 43
1.0
 76
     1
 77
     6
 78
     2
 67
     7
 79
     5
170
     0
171
     0
290
     0
174
     0
 93
        1
 44
0.0
173
     0
291
     1
 45
0.0
1001
ACAD
1000
AcDbSavedByObjectVersion
1070
     0
  0
VISUALSTYLE
  5
2B
102
{ACAD_REACTORS
330
2A
102
}
330
2A
100
AcDbVisualStyle
  2
Flat
 70
     0
 71
     2
 72
     1
 73
     1
 90
        2
 40
-0.6
 41
30.0
 62
     5
 63
     7
 74
     0
 91
        4
 64
     7
 65
   257
 75
     1
175
     1
 42
1.0
 92
        8
 66
     7
 43
1.0
 76
     1
 77
     6
 78
     2
 67
     7
 79
     5
170
     0
171
     0
290
     0
174
     0
 93
       13
 44
0.0
173
     0
291
     1
 45
0.0
1001
ACAD
1000
AcDbSavedByObjectVersion
1070
     0
  0
VISUALSTYLE
  5
2C
102
{ACAD_REACTORS
330
2A
102
}
330
2A
100
AcDbVisualStyle
  2
FlatWithEdges
 70
     1
 71
     2
 72
     1
 73
     1
 90
        2
 40
-0.6
 41
30.0
 62
     5
 63
     7
 74
     1
 91
        4
 64
     7
 65
   257
 75
     1
175
     1
 42
1.0
 92
        0
 66
   257
 43
1.0
 76
     1
 77
     6
 78
     2
 67
     7
 79
     5
170
     0
171
     0
290
     0
174
     0
 93
       13
 44
0.0
173
     0
291
     1
 45
0.0
1001
ACAD
1000
AcDbSavedByObjectVersion
1070
     0
  0
VISUALSTYLE
  5
2D
102
{ACAD_REACTORS
330
2A
102
}
330
2A
100
AcDbVisualStyle
  2
Gouraud
 70
     2
 71
     2
 72
     2
 73
     1
 90
        2
 40
-0.6
 41
30.0
 62
     5
 63
     7
 74
     0
 91
        4
 64
     7
 65
   257
 75
     1
175
     1
 42
1.0
 92
        0
 66
     7
 43
1.0
 76
     1
 77
     6
 78
     2
 67
     7
 79
     5
170
     0
171
     0
290
     0
174
     0
 93
       13
 44
0.0
173
     0
291
     1
 45
0.0
1001
ACAD
1000
AcDbSavedByObjectVersion
1070
     0
  0
VISUALSTYLE
  5
2E
102
{ACAD_REACTORS
330
2A
102
}
330
2A
100
AcDbVisualStyle
  2
GouraudWithEdges
 70
     3
 71
     2
 72
     2
 73
     1
 90
        2
 40
-0.6
 41
30.0
 62
     5
 63
     7
 74
     1
 91
        4
 64
     7
 65
   257
 75
     1
175
     1
 42
1.0
 92
        0
 66
   257
 43
1.0
 76
     1
 77
     6
 78
     2
 67
     7
 79
     5
170
     0
171
     0
290
     0
174
     0
 93
       13
 44
0.0
173
     0
291
     1
 45
0.0
1001
ACAD
1000
AcDbSavedByObjectVersion
1070
     0
  0
VISUALSTYLE
  5
38
102
{ACAD_REACTORS
330
2A
102
}
330
2A
100
AcDbVisualStyle
  2
Linepattern
 70
    14
 71
     2
 72
     2
 73
     0
 90
        0
 40
-0.6
 41
-30.0
 62
     5
 63
     7
 74
     1
 91
        4
 64
     7
 65
   257
 75
     7
175
     7
 42
1.0
 92
        8
 66
     7
 43
1.0
 76
     1
 77
     6
 78
     2
 67
     7
 79
     5
170
     0
171
     0
290
     0
174
     0
 93
        1
 44
0.0
173
     0
291
     1
 45
0.0
1001
ACAD
1000
AcDbSavedByObjectVersion
1070
     0
  0
VISUALSTYLE
  5
33
102
{ACAD_REACTORS
330
2A
102
}
330
2A
100
AcDbVisualStyle
  2
Realistic
 70
     8
 71
     2
 72
     2
 73
     0
 90
        0
 40
-0.6
 41
-30.0
 62
     5
 63
     7
 74
     1
 91
        0
 64
     7
 65
   257
 75
     1
175
     1
 42
1.0
 92
        8
 66
     8
 43
1.0
 76
     1
 77
     6
 78
     2
 67
     7
 79
     5
170
     0
171
     0
290
     0
174
     0
 93
       13
 44
0.0
173
     0
291
     0
 45
0.0
1001
ACAD
1000
AcDbSavedByObjectVersion
1070
     0
  0
VISUALSTYLE
  5
37
102
{ACAD_REACTORS
330
2A
102
}
330
2A
100
AcDbVisualStyle
  2
Thicken
 70
    13
 71
     2
 72
     2
 73
     0
 90
        0
 40
-0.6
 41
-30.0
 62
     5
 63
     7
 74
     1
 91
        4
 64
     7
 65
   257
 75
     1
175
     1
 42
1.0
 92
       12
 66
     7
 43
1.0
 76
     1
 77
     6
 78
     2
 67
     7
 79
     5
170
     0
171
     0
290
     0
174
     0
 93
        1
 44
0.0
173
     0
291
     1
 45
0.0
1001
ACAD
1000
AcDbSavedByObjectVersion
1070
     0
  0
DICTIONARYVAR
  5
39D
102
{ACAD_REACTORS
330
398
102
}
330
398
100
DictionaryVariables
280
     0
  1
2
  0
DICTIONARYVAR
  5
39E
102
{ACAD_REACTORS
330
398
102
}
330
398
100
DictionaryVariables
280
     0
  1
1
  0
DICTIONARYVAR
  5
39C
102
{ACAD_REACTORS
330
398
102
}
330
398
100
DictionaryVariables
280
     0
  1
80.000000
  0
DICTIONARYVAR
  5
39B
102
{ACAD_REACTORS
330
398
102
}
330
398
100
DictionaryVariables
280
     0
  1
5.000000
  0
ENDSEC
  0
EOF
